Frusciante John - Murderers Chords & Tabs

 

Murderers Chords & Tabs

Frusciante John Chords & Tabs

Version: 2 Type: Tab 2 ratings
1 star 2 stars 3 stars 4 stars 5 stars
comments

Murderers Tab

John Frusciante
Murderers
Tabbed by Leo Drobnic (e-mail: gdrobnic@inet.hr)

INTRO:
play 2 times
e:---------------------9---12--9--------------
B:----12----9--10--10-------------12--9---10--
G:--------------------------------------------
D:--------------------------------------------
A:--------------------------------------------
E:--------------------------------------------

e:-------------------------------------------|
B:--12----9--10--10--12--14--12--------------|
G:-------------------------------14--13--14--|
D:-------------------------------------------|
A:-------------------------------------------|
E:-------------------------------------------|



e:-----------------------------|
B:----9------10-----9------9---|
G:-----------------------------|
D:-----------------------------|
A:----7------9------7------6---|
E:-----------------------------|


[ Tab from: http://www.guitartabs.cc/tabs/f/frusciante_john/murderers_tab_ver_2.html ]
e:-------------------------------------------------
B:-------7-----7-7----7--9--10--10-----10-10-------
G:-------------------------------------------------
D:-------------------------------------------------
A:----5-----5-------5-5--7--9-------9---------9----
E:-------------------------------------------------

e:----------------------------------------------------
B:------7-7-----9-9-----9--12--10--10-----10-10----10-
G:----------------------------------------------------
D:----------------------------------------------------
A:----5------7-------7--7--11---9------9---------9--9-
E:----------------------------------------------------

e:------------------------------------------------------------
B:--------15-15------15-15------15--9--10--10-----10-10----10-
G:------------------------------------------------------------
D:------------------------------------------------------------
A:----13---------13---------13------7---9------9---------9--9-
E:------------------------------------------------------------

e:------------------------------|
B:------7-7-----9-9-----9--5----|
G:------------------------------|
D:------------------------------|
A:----5------7-------7--7--3----|
E:------------------------------|

It'll take you awhile to get the rythm right
I don't know if everything is correct, but since this is my
first tab don't hold anything against me.  Please conntact me
about corrections.









Comments