Frusciante John - Head Beach Arab Chords & Tabs

 

Head Beach Arab Chords & Tabs

Frusciante John Chords & Tabs

Version: 1 Type: Tab 0 ratings
1 star 2 stars 3 stars 4 stars 5 stars
comments

Head Beach Arab Tab

   
##################################################################################
# This file is the author's own work and represents their interpretation of the  #
# song. You may only use this file for private study, scholarship, or research.  #
##################################################################################

Head (Beach Arab)
By John Frusciante

Transcribed by Sean Brokenshire
sean@eisa.net.au


There are three guitar tracks. The staves are grouped in three so that
you can get an idea of where the notes are in relation to the other
parts. Track1 is panned centre, Track2 is left, Track 3 is right.

[ Tab from: http://www.guitartabs.cc/tabs/f/frusciante_john/head_beach_arab_tab.html ]
 D            Dmin7       D           Dmin7        D           Dmin7         C
|10-----------------------10-----------------------10--------------------10--8-
|---10----------------10-----10----------------10-----10---------------------8-
|------11----------10-----------11----------10-----------11----------10------9-
|---------12----10-----------------12----10-----------------12----10-----------
|------------12-----------------------12-----------------------12--------------
|------------------------------------------------------------------------------
|
|------7-8-7-------------------------------------------------------------------
|------------10-----8h10-------------------------------------------------10----
|------------------------------9b10b11--------------------------------/10----9-
|-------------------------------------------------12-10/12-----10-10-----------
|-----------------------------------------------------------12-----------------
|------------------------------------------------------------------------------
|
|10------------8-10-8----------------------8-----------------------------------
|---------------------10--------------8h10----10-----------------------8-10----
|----------------------------------------------------------------------------9-
|------------------------------------------------------------------------------
|------------------------------------------------------------------------------
|------------------------------------------------------------------------------


         D           Dmin7       D           Dmin7       D          Dmin7
|-------10----------------------10----------------------10-------------------10
|----------10----------------10----10----------------10----10------------------
|-------------11----------10----------11----------10----------11----------10---
|----------------12----10----------------12----10----------------12----10------
|-------------------12----------------------12----------------------12---------
|------------------------------------------------------------------------------
|
|------------------------------------------------------------------------------
|--8------------------12-15--13-12/10---11-11-11--11-13p11---------------------
|/9-9--7----------------------------------------12---------12/14---------------
|----10---------------------------------------------------------10-10h12-10h12-
|------------------------------------------------------------------------------
|------------------------------------------------------------------------------
|
|------------------------------------------------------------------------------
|---8--------------------------------------------------------------------------
|-/9-9--7----------------------------------------------------------------------
|-----10-----------------------------------------------------------------------
|------------------------------------------------------------------------------
|------------------------------------------------------------------------------


   C
|----8
|----8
|----9
|-----
|-----
|-----
|
|------
|------
|------
|12/14~
|------
|------
|
|----12
|------
|------
|------
|------
|------


That's the intro and the basic idea for other sections that follow.
When the vocals come in, the riff under that is:

|-------------------------|
|-------------------------|
|*---------5--------5----*|
|*-7-7-5h7------5h7--7p5-*|
|--5-5------(5)-----------|
|------------8------------|


Outro:
Bb C F, Bb C A
Bb C F, F C Bb
Comments