Frusciante John - Carvel Chords & Tabs

 

Carvel Chords & Tabs

Frusciante John Chords & Tabs

Version: 1 Type: Tab 1 rating
1 star 2 stars 3 stars 4 stars 5 stars
comments

Carvel Tab

   
##################################################################################
# This file is the author's own work and represents their interpretation of the  #
# song. You may only use this file for private study, scholarship, or research.  #
##################################################################################

Artist- John Frusciante
Song- Carvel
Album- Shadows Collide With People

Hey. I love this song so much that I felt I had to tab it!
This is my version….it’s kind of tough to here the acoustic 
guitar through the cool sound effects and keyboards. The into of 
this song is pretty creepy and goes on for a minute and a half. I 
have no idea how he made it, but its really just a build up to the 
song.

Bar = bar chord (alternate chording)
^=bend
/= slide
h= hammer on 
p= pull off
x= muted or scratched
~ = Tremolo

Chords used by gtr. 1:
        Bm      F# m      G          D      A  or  A(bar)  D(bar)
E-----2-------2---------3--------2-----0-------5-------------------------------------------||
B-----3-------2---------3--------3-----3-------5------- 5----------------------------------||
G-----4-------2-------- 4--------2-----3-------6------- 5----------------------------------||
D-----4-------4---------5--- ----0-----3-------7------- 5----------------------------------||
A---- 2-------4---------5--------------0--------7-------3----------------------------------||
E-----x-------2---------3-----------------------5------------------------------------------||


Verse Gtr.1:
(Melody Being Sung Plainly)

Bm                F#m         G            Bm                F#m         G
===========================================================================

Chorus:
D           A       F#m            G
==================================================

Verse:
Bm            F#m             G  Bm            F#m  
===================================================

Chorus:
D           A       F#m            G
===================================================  

Bridge:
G             A                   G               A
====================================================

Verse:
(One voice continues to sing god while another sings the verse)
Bm  G          F#m        G         Bm         F#m
====================================================== 
        
Ahh ah  ahhh ah ahhhhh           Ahh ah  ahhh ah ahhhhh

Chorus:
D           A       F#m            G
====================================




Bridge 2:
(three voices harmonize)
F#m                         F#m                   
Ahhhh ahhhhhhh ahhhhhhhhhh   
[ Tab from: http://www.guitartabs.cc/tabs/f/frusciante_john/carvel_tab.html ]
F#m               Bm        D(bar)    A       G              
Have you gone away!!!!!!!!!!!!!!!!!!!!!!!!!!!!


Bm          D(bar )         A          G


Gtr. 2 (electric) enters with no distortion
SOLO:
    
       Bm                 D(bar)                   A                G
E---------------------------------------------------------------------
B------------------7-----------------------7-------7/--10-/-~12~------
G-4/----7----9-----------4/-----7-----9---------9---------------------
D---------------------------------------------------------------------
A---------------------------------------------------------------------
E---------------------------------------------------------------------
      
      Bm                 D(bar)                   A                G
E----------------------------------------------------------------------
B-------------------7-------------------7-----------------------~3~----
G4/---7------9-----------4/---7---9---------9/-----7/----6------~4~----
D----------------------------------------------------------------------
A----------------------------------------------------------------------
E----------------------------------------------------------------------

Verse 2:
Bm     D(bar)    A       G
===========================

SOLO:
Bm                 D(bar)                   A                G
E---------------------------------------------------------------------
B------------------7-----------------------7-------7/--10-/-~12~------
G-4/----7----9-----------4/-----7-----9---------9---------------------
D---------------------------------------------------------------------
A---------------------------------------------------------------------
E---------------------------------------------------------------------
      
      Bm                 D(bar)                   A                G
E----------------------------------------------------------------------
B-------------------7-------------------7-----------------------~3~----
G4/---7------9-----------4/---7---9---------9/-----7/----6------~4~----
D----------------------------------------------------------------------
A----------------------------------------------------------------------
E----------------------------------------------------------------------



Bm       D(bar)          A                    G
================================================



Outro:

D          A      Bm         G
Way!!!!!!!!!!!!!!!!!!!!!!!!!!
==============================

D          A      Bm         G
Yeah!!!!!!!!!!!!!!!!!!!!!!!!!
===============================

D          A      Bm         ~G~
===============================




Whew!  This such a large just ambitious song.
Do enjoy,
Madman Across the water

Comments