Frou Frou - Let Go Chords & Tabs

 

Let Go Chords & Tabs

Frou Frou Chords & Tabs

Version: 1 Type: Bass Tab

Let Go Bass Tab

----------------------------------------------------------------------------
			     LET GO - Frou Frou
----------------------------------------------------------------------------

Tabbed By : ruthlette*

Don't take my word for this, I made it *all* up and I'm probably making it unnecessarily 
But it's in tune, and no one else had tabbed it. So. There.

Tuning EADG


CHORUS (Starts at 0:47)

G|------52--------------5-----------|------52--------------5-----------|
D|------------------------7-33333---|------------------------7---------|
A|--555-----0-010--111--------------|--555-----0-010--111-------3387---|
E|-----------3----------------------|-----------3----------------------|

[repeat til verse]


VERSE (1:22)

G|----------------------------|
D|----------------------------|
A|--8888*-5555-8888-5555------|
E|----------------------------|

[ Tab from: http://www.guitartabs.cc/tabs/f/frou_frou/let_go_btab.html ]
G|----------------------------|
D|------5555-7777-------------|
A|----------------------------| X2
E|-----------0000-1111-3333---|

CHORUS (1:51) x2

BRIDGE (2:18)

G|-----------------------------------|
D|------------7-------------7--------|
A|--5555*--555-555--5555*----555-----|
E|-----------------------------------|

G|-----------5-----------------------|
D|--5555--777-7----------------------|
A|--------000-0---11113333-----------| X2
E|-----------------------------------|

CHORUS (2.46) til end.

--------------------------------------------


* Listen to the song carefully for the rhythm. I can't really describe it in tab form. 
obviously more than 4, but work it out yourself.


ALT CHORUS END

G|------52--------------5-----------|
D|------------------------7----32---|
A|--555-----0-010--111-------33-----|
E|-----------3----------------------|