Front Level - Strong Acceptance Chords & Tabs

 

Strong Acceptance Chords & Tabs

Front Level Chords & Tabs

Version: 2 Type: Tab 0 ratings
1 star 2 stars 3 stars 4 stars 5 stars
comments

Strong Acceptance Tab

   
Song: Strong Acceptance
Artist: Front Level
Tabbed by: Jake (Lead Guitarist)
Tuning: Drop D

Key:

    ~ = let ring
    pm. = palm mute
    D = down strum                  This was accually the best
    U = up strum                    original we got immediatly.
    ^ = bend
    () = ghost note
    r = release
    X = mute rake

Intro: Hit open D power chord when guitar volume is all the
way down and turn up gradually. Heavy Distortion.
         riff A
e|------|-------------------------------------------------|
B|------|-------------------------------------------------|
G|------|-------------------------------------------------|
D|-(0)~-|-0----0----0----0--1-2-3-0----0----0----0--1-2-3-|
A|-(0)~-|-0----0----0----0--1-2-3-0----0----0----0--1-2-3-|
D|-(0)~-|-0----0----0----0--1-2-3-0----0----0----0--1-2-3-|

(riff A continued...)
e|-----------------------------------------------------|
B|-----------------------------------------------------|
G|-----------------------------------------------------|
D|-0--0--0--0--0--0--0-1-2-3-0--0--0--0--0--0--0-1-2-3-|
A|-0--0--0--0--0--0--0-1-2-3-0--0--0--0--0--0--0-1-2-3-|
D|-0--0--0--0--0--0--0-1-2-3-0--0--0--0--0--0--0-1-2-3-|

When screaming starts:
  riff B
e|----------------------------------------------------------------|
B|----------------------------------------------------------------|
G|----------------------------------------------------------------|
D|-0--0-0--0--0-0--0--0-0-1-2-3-1--0--0-0--0--0-0--0--0-0-1-2-3-1-|
A|-0--0-0--0--0-0--0--0-0-1-2-3-1--0--0-0--0--0-0--0--0-0-1-2-3-1-|
D|-0--0-0--0--0-0--0--0-0-1-2-3-1--0--0-0--0--0-0--0--0-0-1-2-3-1-|
pm    ...     ...     ...             ...     ...     ...

          D U      D U                     D U      D U
  riff B continued...
e|-------------------------------------------------------------------|
b|-------------------------------------------------------------------|
G|-------------------------------------------------------------------|
D|-0-0-00-0-0-0-00-0-0-0-00-1-2-3-1-0-0-00-0-0-0-00-0-0-0-00-1-2-3-1-|
A|-0-0-00-0-0-0-00-0-0-0-00-1-2-3-1-0-0-00-0-0-0-00-0-0-0-00-1-2-3-1-|
D|-0-0-00-0-0-0-00-0-0-0-00-1-2-3-1-0-0-00-0-0-0-00-0-0-0-00-1-2-3-1-|
pm   . ..     . ..     . .. .......   . ..     . ..     . .. .......
[ Tab from: http://www.guitartabs.cc/tabs/f/front_level/strong_acceptance_tab_ver_2.html ]
Clean: (high treble/high bass)       riff C
e|----|-----------------------------------------|
B|----|-----------------------------------------|
G|----|-----------------------------------------|
D|-0~-|-3-3---5p3-3-3-----3-3-3-5-3-3-3-5-3-5-3-|
A|-0~-|-3-3---3---3-3-----3-3-3-3-3-3-3-3-3-3-5-|
D|-0~-|-3-3-3-3---3-3-0-0-3-3-3-3-3-3-3-3-3-3-3-|

  riff C continued...
e|---------------------------------------------------|
B|---------------------------------------------------|
G|---------------------------------------------------|
D|--------2---3-----2-2-3-2--------2---3-----2-2-3-2-|
A|---------------------------------------------------|
D|-0--0-0---0---0-0---------0--0-0---0---0-0---------|

Distorted:
  riff D
e|------------------------------------------------------------|
B|------------------------------------------------------------|
G|------------------------------------------------------------|
D|-3--3-3-3--5--3-3--3-0-0-3-3--3-3--3-5-3-3--5--5-5^(6)r(5)--|
A|-3--3-3-3-----3-3--3-0-0-3-3--3-3--3---3-3------------------|
D|-3--3-3-3-----3-3--3-0-0-3-3--3-3--3---3-3------------------|
pm    ...       ...             ...           **************
                                             (pinch harmonics)

  riff D continued...
e|-----------------------------------------------|
B|-----------------------------------------------|
G|-----------------------------------------------|
D|-0--0-0--2--0-0--3--0-0-0--2--0-0--2^(3)r(2)p0-|
A|-0--0-0-----0-0-----0-0-0-----0-0--------------|
D|-0--0-0-----0-0-----0-0-0-----0-0--------------|
           *       *         *       ***********
                     (pinch harmonics)

  riff E
e|--------------------------------------------|
B|--------------------------------------------|
G|--------------------------------------------|
D|-3-X--X-X--3-3--X--5-X-3-X-5-X-5--5/6\5p3p0-|
A|-3-X--X-X--3-3--X--5-X-3-X-5-X-5--5/6\5p3p0-|
D|-3-X--X-X--3-3--X--5-X-3-X-5-X-5--5/6\5p3p0-|

  riff E continued...                     break-down
e|---------------------------------------|---|
B|---------------------------------------|---|
G|---------------------------------------|---|
D|-0--0-0--2--0-0--3--0-0-0--2--0-0--3-2-|-0-|
A|-0--0-0--2--0-0--3--0-0-0--2--0-0--3-2-|-0-|
D|-0--0-0--2--0-0--3--0-0-0--2--0-0--3-2-|-0-|
pm    ...     ...     .....     ...

Song Key:

Riff A
Riff B 2x
Riff C 4x
Riff D
Riff E
Riff E continued 2x
Break-Down
Riff A
Riff B continued...  2x
End on a quick open D power chord

You will hear of our music very soon ;)  (powerdogg90@hotmail.com)
Comments