From Zero - The Otherside Chords & Tabs

 

The Otherside Chords & Tabs

From Zero Chords & Tabs

Version: 1 Type: Tab 0 ratings
1 star 2 stars 3 stars 4 stars 5 stars
comments

The Otherside Tab

   
Author/Artist: From Zero
Title: The Otherside
Album: One Nation Under
Transcribed by: gomez
Tuning:C,G,C,F,A,D
[ Tab from: http://www.guitartabs.cc/tabs/f/from_zero/the_otherside_tab.html ]
--------------|--------------8-|----------|-----------------|-----------|
--------------|-----5------6---|----------|-----------------|-----------|
-7-9-7--------|-79---7--7------|7777------|--5-7-5-5--------|-7-9-109-9-|
-x-x-x--0-0-5-|----------------|7777-03-3-|--x-x-x-x-0-0-3--|-x-x-x-x-x-|
-5-7-5--0-0-5-|----------------|5555-03-3-|--5-7-5-5-0-0-3--|-5-7-8-7-7-|
--------0-0-5-|----------------|-----03-3-|----------0-0-3--|-----------|
        pm-                                   verse  pm-      wah effect       

---------------|-------------------------|
---------------|-------------------------|
-101010--55--7-|--5v---------------------|
-101010--55--7-|-----0--05h65-3333-3h5-5-|
-8-8-88--33--5-|-----0--05h65-3333-3h5-5-|
---------------|-----0--05h65-3333-3h5-5-|
  chorus
Comments