From Zero - Check Ya Chords & Tabs

 

Check Ya Chords & Tabs

From Zero Chords & Tabs

Version: 1 Type: Bass Tab 0 ratings
1 star 2 stars 3 stars 4 stars 5 stars
comments

Check Ya Bass Tab

   
From Zero - Check Ya
Submitted By: Ryan Mueller
One Nation Under

The tuning for this song is C-A-D-G. The bassist usually uses a 5-string but I tabbed it out for a 4-string.
Intro:
G-----------------------------------------------------------------------------------------------------------------------------
D-----------------------------------------------------------------------------------------------------------------------------
A----------33----------------3333--------33--------44441------------------------------------
C---00--------00--00-----------------00--------00---------------------------------------------------------

Verse:
G-----------------------------------------------------------------------------------------------------------------------------
D-----------------------------------------------------------------------------------------------------------------------------
A-----------------------------------------------------------------------------------------------------------------------------
C23335----23530----23335975750-----------------------------

G-----------------------------------------------------------------------------------------------------------------------------
D-----------------------------------------------------------------------------------------------------------------------------
A-----------------------------------------------------------------------------------------------------------------------------
C---23335---2---3---530---2---3---3---3---5----2----------------------------------------------------
[ Tab from: http://www.guitartabs.cc/tabs/f/from_zero/check_ya_btab.html ]
Chorus:
G-----------------------------------------------------------------------------------------------------------------------------
D-----------------------------------------------------------------------------------------------------------------------------
A-----------------------222---2------------------------------------------------------0000---00--------------------------
C---77---7---7-----------------------7777---7\4444---4---4---4-------------------------------------777777

Verse 2:
G-----------------------------------------------------------------------------------------------------------------------------
D-----------------------------------------------------------------------------------------------------------------------------
A-----------------------------------------------------------------------------------------------------------------------------
C----02-----2--------2-----2---------------------------------------------------------------------------------------------
===========          From Zero
          Check Ya [with a bomb]
          Luke Brown moxshyfter@yahoo.com
          DADG
          
          Main Riff
          G:---------------
          D:---------------
          A:---------------
          D:0/3-2-3-2-3-3h4
          Im not 100% on this, but i think its close 
          
          Verse [really fast]
          G:-----------------------------------------------
          D:-----------------------------------------------
          A:3p2-3p2-3p2-3p2-3p2-3p2-3p2-3p2-4p3-4p3-4p3-0h2
          D:-----------------------------------------------
          
          Verse [cont]
          G:---------------|---------------
          D:---------------|---------------
          A:---------------|-3-5--33--5-3-5
          D:0-2-2h3--0-2-x-|---------------
                                  ^^ these may be muted, but the guitar plays this note
          
            T P P T P P T P T PPPPPP  T   PP T   PP T   P T   PPPPPP
          G:-------------------------|----77-----77-----7-----777777
          D:-------------------------|------------------------------
          A:--5-5---5-5---5---555555-|0h5----0h5----0h5---0h5-------
          D:0-----0-----0---x--------|------------------------------
          
          The outro riff is basically the same as this one ^ but the first part has a different
          timing to it....i think thats it for the song....pretty kick ass tune.....lemme know 
          if you got any corections or comments
          ROCK ON ;)
          moxshyfter@yahoo.com
Comments