From First To Last - Shame Shame Chords & Tabs

 

Shame Shame Chords & Tabs

From First To Last Chords & Tabs

Version: 1 Type: Tab

Shame Shame Tab

   
Tabbed By: Joshua Oliveira
To Be Reached At: joshuaoliveira@hotmail.com
Tuning: CGCFAD

**Mind The Tuning**

**Note: This is only Guitar 1. Guitar 2 will be laid out after Guitar 1.**

[Intro] - [00:00] - [00:07]
- ----------------------------------|
- ----------------------------------|
- ----------------------------------|
- -0-R-0-0-0-0-R-0-0-0-0-R-0-0-0-0~-|
- -0-R-0-0-0-0-R-0-0-0-0-R-0-0-0-0~-|
- -0-R-0-0-0-0-R-0-0-0-0-R-0-0-0-0~-|

[Verse 1] - [00:07] - [00:23]
- -------------------------------------------------------------------------|
- -------------------------------------------------------------------------|
- -------------------------------------------------------------------------|
- -------------------------------------------------------------------------|
- -------------------------------------------------------------------------|
- -4-4-4-4-4-4-4-4-4-4-4-4-4-4-4-4-4-4-4-4-4-4-4-4-4-4-2-2-2-2-2-2-2-2-2-2-|

--------------------------------------------------------------------------|
--------------------------------------------------------------------------|
--------------------------------------------------------------------------|
--------------------------------------------------------------------------|
--------------------------------------------------------------------------|
2-2-7-7-7-7-7-7-0-0-0-0-0-0-4-4-4-4-4-4-4-4-4-4-4-4-4-4-4-4-4-4-4-4-4-4-4-|

--------------------------|
--------------------------|
--------------------------|
--------------------------|
--------------------------|
4-7-7-7-7-7-7-0-0-0-0-0-0-|

[Bridge 1] - [00:23] - [00:40]
- -------------------------------------------------------------------------|
- -------------------------------------------------------------------------|
- ----------[  ]---------[  ]----------------------------------------------|
- -0-0-0-0-0----0-0-0-0-0--------------------------------------------------|
- -0-0-0-0-0----0-0-0-0-0--------------------------------------------------|
- -0-0-0-0-0----0-0-0-0-0----11h12-11h12p11p0-11h12-11h12p11p0-3-3-3-3-3-3-|

------------------------------------------------------------------------|
---------------------[  ]---------[  ]----------------------------------|
------------------------------------------------------------------------|
3-3-3-3-3-3-0-0-0-0-0----0-0-0-0-0--------------------------------------|
------------0-0-0-0-0----0-0-0-0-0--------------------------------------|
------------0-0-0-0-0----0-0-0-0-0----11h12-11h12p11p0-11h12-11h12p11p0-|

------------------------|
------------------------|
------------------------|
------------3-3-3-3-3-3-|
------------------------|
3-3-3-3-3-3-------------|

[Chorus 1] - [00:40] - [00:55]
- --------------------------------------------------------------------------|
- ------------[  ]-----------[  ]-------------------------------------------|
- --------------------------------7-7-7-6-6-6-15-15-15-15-15-15-16-16-16-16-|
- -4-4--4--4-R----4-4--4--4-R-----x-x-x-x-x-x-x--x--x--x--x--x--x--x--x--x--|
- -4-4--4--4-R----4-4--4--4-R-----5-5-5-4-4-4-13-13-13-13-13-13-14-14-14-14-|
- -4-4--4--4-R----4-4--4--4-R-----------------------------------------------|

--------------------------------------------------------------------------|
---------------------------[  ]-----------[  ]----------------------------|
16-8-8-8-8-8-8---------------------------------7-7-7-6-6-6-15-15-15-15-15-|
x--x-x-x-x-x-x--4-4--4--4-R----4-4--4--4-R-----x-x-x-x-x-x-x--x--x--x--x--|
14-6-6-6-6-6-6--4-4--4--4-R----4-4--4--4-R-----5-5-5-4-4-4-13-13-13-13-13-|
----------------4-4--4--4-R----4-4--4--4-R--------------------------------|

------------------------------------|
15-16-16-16-16-16-16-8-8-8-8-8-8----|
x--x--x--x--x--x--x--x-x-x-x-x-x----|
13-14-14-14-14-14-14-6-6-6-6-6-6-0~-|
---------------------------------0~-|
---------------------------------0~-|

[Fill 1] - [00:55] - [01:00]
- ------------|
- ------------|
- ------------|
- -4-0~--4-0~-|
- -4-0~--4-0~-|
- -4-0~--4-0~-|

[Verse 2] - [01:00] - [01:15]
- -------------------------------------------------------------------------|
- -------------------------------------------------------------------------|
- -------------------------------------------------------------------------|
- -------------------------------------------------------------------------|
- -------------------------------------------------------------------------|
- -4-4-4-4-4-4-4-4-4-4-4-4-4-4-4-4-4-4-4-4-4-4-4-4-4-4-2-2-2-2-2-2-2-2-2-2-|

--------------------------------------------------------------------------|
--------------------------------------------------------------------------|
--------------------------------------------------------------------------|
--------------------------------------------------------------------------|
--------------------------------------------------------------------------|
2-2-7-7-7-7-7-7-0-0-0-0-0-0-4-4-4-4-4-4-4-4-4-4-4-4-4-4-4-4-4-4-4-4-4-4-4-|

--------------------------|
--------------------------|
--------------------------|
--------------------------|
--------------------------|
4-7-7-7-7-7-7-0-0-0-0-0-0-|

[Fill 2] - [01:15] - [01:30]
- -----------------------------------------------------------------------|
- -----------------------------------------------------------------------|
- -----------------------------------------------------------------------|
- -0-0-0-0-0-R-00-R-00-R-7-7-7-7-7-7-0-0-0-0-0-0--0-0-0-0-0-R-00-R-00-R--|
- -0-0-0-0-0-R-00-R-00-R-7-7-7-7-7-7-0-0-0-0-0-0--0-0-0-0-0-R-00-R-00-R--|
- -0-0-0-0-0-R-00-R-00-R-7-7-7-7-7-7-0-0-0-0-0-0--0-0-0-0-0-R-00-R-00-R--|

------------------------|
------------------------|
------------------------|
7-7-7-7-7-7-0-0-0-0-0-0-|
7-7-7-7-7-7-0-0-0-0-0-0-|
7-7-7-7-7-7-0-0-0-0-0-0-|

[Bridge 2] - [01:30] - [01:47]
- -------------------------------------------------------------------------|
- -------------------------------------------------------------------------|
- ----------[  ]---------[  ]----------------------------------------------|
- -0-0-0-0-0----0-0-0-0-0--------------------------------------------------|
- -0-0-0-0-0----0-0-0-0-0--------------------------------------------------|
- -0-0-0-0-0----0-0-0-0-0----11h12-11h12p11p0-11h12-11h12p11p0-3-3-3-3-3-3-|

--------------------------------------------------------------------------|
---------------[  ]---------[  ]------------------------------------------|
--------------------------------------------------------------------------|
------0-0-0-0-0----0-0-0-0-0----------------------------------------------|
------0-0-0-0-0----0-0-0-0-0----------------------------------------------|
-3*b--0-0-0-0-0----0-0-0-0-0----11h12-11h12p11p0-11h12-11h12p11p0-3-3-3-3-|

------------------|
------------------|
------------------|
----3-3-3-3-3-3---|
------------------|
3-3---------------|

[Chorus 2] - [01:47] - [02:04]
- --------------------------------------------------------------------------|
- ------------[  ]-----------[  ]-------------------------------------------|
- --------------------------------7-7-7-6-6-6-15-15-15-15-15-15-16-16-16-16-|
- -4-4--4--4-R----4-4--4--4-R-----x-x-x-x-x-x-x--x--x--x--x--x--x--x--x--x--|
- -4-4--4--4-R----4-4--4--4-R-----5-5-5-4-4-4-13-13-13-13-13-13-14-14-14-14-|
- -4-4--4--4-R----4-4--4--4-R-----------------------------------------------|

--------------------------------------------------------------------------|
---------------------------[  ]-----------[  ]----------------------------|
16-8-8-8-8-8-8---------------------------------7-7-7-6-6-6-15-15-15-15-15-|
x--x-x-x-x-x-x--4-4--4--4-R----4-4--4--4-R-----x-x-x-x-x-x-x--x--x--x--x--|
14-6-6-6-6-6-6--4-4--4--4-R----4-4--4--4-R-----5-5-5-4-4-4-13-13-13-13-13-|
----------------4-4--4--4-R----4-4--4--4-R--------------------------------|

-----------------------------------|
15-16-16-16-16-16-16-8-8-8-8-8-8---|
x--x--x--x--x--x--x--x-x-x-x-x-x---|
13-14-14-14-14-14-14-6-6-6-6-6-6---|
-----------------------------------|
-----------------------------------|
[Bridge 3] - [02:04] - [02:34]
- --------------------------------------------------------------------------|
- --------------------------------------------------------------------------|
- -2-2-2-2-2-2-2-2-2-2-2-2-3-3-3-3-3-3-3-3-3-3-3-3--------------------------|
- -2-2-2-2-2-2-2-2-2-2-2-2-3-3-3-3-3-3-3-3-3-3-3-3--4-x-x-x-x-4-x-x-x-x-4-x-|
- -0-0-0-0-0-0-0-0-0-0-0-0-1-1-1-1-1-1-1-1-1-1-1-1--4-x-x-x-x-4-x-x-x-x-4-x-|
- --------------------------------------------------4-x-x-x-x-4-x-x-x-x-4-x-|

----------------------------------------------------------------------------|
----------------------------------------------------------------------------|
-----------------2-2-2-2-2-2-2-2-2-2-2-2-3-3-3-3-3-3-3-3-3-3-3-3------------|
x-x-x-4-x-x-x-x--2-2-2-2-2-2-2-2-2-2-2-2-3-3-3-3-3-3-3-3-3-3-3-3--4-x-x-x-x-|
x-x-x-4-x-x-x-x--0-0-0-0-0-0-0-0-0-0-0-0-1-1-1-1-1-1-1-1-1-1-1-1--4-x-x-x-x-|
x-x-x-4-x-x-x-x---------------------------------------------------4-x-x-x-x-|

-------------------------------------------------------------------------|
-------------------------------------------------------------------------|
-------------------------------------------------------------------------|
4-x-x-x-x-4-x-x-x-x-4--4--4--4-x-x-x-x-x-x-x-x-x-x-x-x-x-x-x-x-4-x-x-x-x-|
4-x-x-x-x-4-x-x-x-x-4--4--4--4-x-x-x-x-x-x-x-x-x-x-x-x-x-x-x-x-4-x-x-x-x-|
4-x-x-x-x-4-x-x-x-x-4--4--4--4-x-x-x-x-x-x-x-x-x-x-x-x-x-x-x-x-4-x-x-x-x-|

---------------------------------------------------------------------------|
---------------------------------------------------------------------------|
---------------------------------------------------------------------------|
4-x-x-x-x-4-x-x-x-x-x-x-x-x-x-x-x-x-x-x-x-x-4-x-x-x-x-3-x-x-x-x-0~---------|
4-x-x-x-x-4-x-x-x-x-x-x-x-x-x-x-x-x-x-x-x-x-4-x-x-x-x-3-x-x-x-x-0~---------|
4-x-x-x-x-4-x-x-x-x-x-x-x-x-x-x-x-x-x-x-x-x-4-x-x-x-x-3-x-x-x-x-0~---------|

[Chorus 3] - [02:34] - [03:06]
- --------------------------------------------------------------------------|
- ------------[  ]-----------[  ]-------------------------------------------|
- --------------------------------7-7-7-6-6-6-15-15-15-15-15-15-16-16-16-16-|
- -4-4--4--4-R----4-4--4--4-R-----x-x-x-x-x-x-x--x--x--x--x--x--x--x--x--x--|
- -4-4--4--4-R----4-4--4--4-R-----5-5-5-4-4-4-13-13-13-13-13-13-14-14-14-14-|
- -4-4--4--4-R----4-4--4--4-R-----------------------------------------------|

--------------------------------------------------------------------------|
---------------------------[  ]-----------[  ]----------------------------|
16-8-8-8-8-8-8---------------------------------7-7-7-6-6-6-15-15-15-15-15-|
x--x-x-x-x-x-x--4-4--4--4-R----4-4--4--4-R-----x-x-x-x-x-x-x--x--x--x--x--|
14-6-6-6-6-6-6--4-4--4--4-R----4-4--4--4-R-----5-5-5-4-4-4-13-13-13-13-13-|
----------------4-4--4--4-R----4-4--4--4-R--------------------------------|

-----------------------------------                     - ----|
15-16-16-16-16-16-16-8-8-8-8-8-8---                     - ----|
x--x--x--x--x--x--x--x-x-x-x-x-x--- Play this twice     - ----|
13-14-14-14-14-14-14-6-6-6-6-6-6--- then end with this. - -0~-|
-----------------------------------                     - -0~-|
-----------------------------------                     - -0~-|

[Outro] - [03:06] - [03:35]
- -----------|
- -----------|
- -----------| Play this until the end.
- -4-0~-16/4-|
- -4-0~-16/4-|
- -4-0~-16/4-|

**Note: This is where Guitar 2 Starts. This is not part of Guitar 1**

**Mind The Tuning**

[Intro] - [00:00] - [00:07]
- -------------------------------------------------------------------------|
- -14----------------------------------14----------------------------------|
- ----12-14-12-13-12----------------------12-14-12-13-12-------------------|
- -------------------12-11-------------------------------12-11-------------|
- -------------------------12-11-------------------------------12-11-------|
- -------------------------------12-11-------------------------------12-11-|

--------------------------------------------------------------------------|
14------------------------------------------------------------------------|
---12-14-12-13-12---------------------------------------------------------|
------------------12-11---------------------------11-12-------------11-12-|
-------------------------12-11--------------11-12-------------11-12-------|
-------------------------------12-11--11-12-------------11-12-------------|

[Verse 1] - [00:07] - [00:23]
- -------------------------------------------------------------------------|
- -------------------------------------------------------------------------|
- -------------------------------------------------------------------------|
- -------------------------------------------------------------------------|
- -------------------------------------------------------------------------|
- -4-4-4-4-4-4-4-4-4-4-4-4-4-4-4-4-4-4-4-4-4-4-4-4-4-4-2-2-2-2-2-2-2-2-2-2-|
[ Tab from: http://www.guitartabs.cc/tabs/f/from_first_to_last/shame_shame_tab.html ]
--------------------------------------------------------------------------|
--------------------------------------------------------------------------|
--------------------------------------------------------------------------|
--------------------------------------------------------------------------|
--------------------------------------------------------------------------|
2-2-7-7-7-7-7-7-0-0-0-0-0-0-4-4-4-4-4-4-4-4-4-4-4-4-4-4-4-4-4-4-4-4-4-4-4-|

--------------------------|
--------------------------|
--------------------------|
--------------------------|
--------------------------|
4-7-7-7-7-7-7-0-0-0-0-0-0-|

[Bridge 1] - [00:23] - [00:40]
- -------------------------------------------------------------------------|
- -----------3-3-3-3-3-3------------2-2-2-2-2-2----------------------------|
- -------------------------------------------------------------------------|
- -------------------------------------------------------------------------|
- -[       ]-------------[        ]-------------[                        ]-|
- -------------------------------------------------------------------------|

-------------------------------------------------------------------------|
-----------3-3-3-3-3-3------------2-2-2-2-2-2----------------------------|
-------------------------------------------------------------------------|
-------------------------------------------------------------------------|
-[       ]-------------[        ]-------------[                        ]-|
-------------------------------------------------------------------------|

[Chorus 1] - [00:40] - [00:55]
- -------------------------------------------------------------------------|
- -8-9-8-9-8-9-9--9--9--9--9--9--8-9-8-9-8-9-9--9--9--9--9--9--8-9-8-9-8-9-|
- -------------13-13-13-13-13-13-------------13-13-13-13-13-13-------------|
- -------------------------------------------------------------------------|
- -------------------------------------------------------------------------|
- -------------------------------------------------------------------------|
                                                               . . . . . .

--------------------------------------------------------------------------|
8h9-8h9-8h9-8-9-8-9-8-9-8h9-8h9-8h9-8-9-8-9-8-9-9--9--9--9--9--9--8-9-8-9-|
------------------------------------------------13-13-13-13-13-13---------|
--------------------------------------------------------------------------|
--------------------------------------------------------------------------|
--------------------------------------------------------------------------|
             . . . . . .

-------------------------------------------------------------------------|
8-9-9--9--9--9--9--9--8-9-8-9-8-9-8h9-8h9-8h9-8-9-8-9-8-9-8h9-8h9-8h9-9~-|
----13-13-13-13-13-13----------------------------------------------------|
-------------------------------------------------------------------------|
-------------------------------------------------------------------------|
-------------------------------------------------------------------------|
                       . . . . . .             . . . . . .

[Verse 2] - [01:00] - [01:15]
- -------------------------------------------------------------------------|
- -------------------------------------------------------------------------|
- -------------------------------------------------------------------------|
- -------------------------------------------------------------------------|
- -------------------------------------------------------------------------|
- -4-4-4-4-4-4-4-4-4-4-4-4-4-4-4-4-4-4-4-4-4-4-4-4-4-4-2-2-2-2-2-2-2-2-2-2-|

--------------------------------------------------------------------------|
--------------------------------------------------------------------------|
--------------------------------------------------------------------------|
--------------------------------------------------------------------------|
--------------------------------------------------------------------------|
2-2-7-7-7-7-7-7-0-0-0-0-0-0-4-4-4-4-4-4-4-4-4-4-4-4-4-4-4-4-4-4-4-4-4-4-4-|

--------------------------|
--------------------------|
--------------------------|
--------------------------|
--------------------------|
4-7-7-7-7-7-7-0-0-0-0-0-0-|

[Fill 2] - [01:15] - [01:30]              Or This 16 Times
- -------------------                  - -------------------|
- -14----------------                  - -14-------------10-|
- ----12-14-12-13-14- Played 16 Times. - ----12-14-12-13----| **Note: This is
- -------------------                  - -------------------| an optional way
- -------------------                  - -------------------| to play it not
- -------------------                  - -------------------| the next part!**

[Bridge 2] - [01:30] - [01:47]
- -------------------------------------------------------------------------|
- -----------3-3-3-3-3-3------------2-2-2-2-2-2----------------------------|
- -------------------------------------------------------------------------|
- -------------------------------------------------------------------------|
- -[       ]-------------[        ]-------------[                        ]-|
- -------------------------------------------------------------------------|

-------------------------------------------------------------------------|
-----------3-3-3-3-3-3------------2-2-2-2-2-2----------------------------|
-------------------------------------------------------------------------|
-------------------------------------------------------------------------|
-[       ]-------------[        ]-------------[                        ]-|
-------------------------------------------------------------------------|

[Chorus 2] - [01:47] - [02:04]
- -------------------------------------------------------------------------|
- -8-9-8-9-8-9-9--9--9--9--9--9--8-9-8-9-8-9-9--9--9--9--9--9--8-9-8-9-8-9-|
- -------------13-13-13-13-13-13-------------13-13-13-13-13-13-------------|
- -------------------------------------------------------------------------|
- -------------------------------------------------------------------------|
- -------------------------------------------------------------------------|
                                                               . . . . . .

--------------------------------------------------------------------------|
8h9-8h9-8h9-8-9-8-9-8-9-8h9-8h9-8h9-8-9-8-9-8-9-9--9--9--9--9--9--8-9-8-9-|
------------------------------------------------13-13-13-13-13-13---------|
--------------------------------------------------------------------------|
--------------------------------------------------------------------------|
--------------------------------------------------------------------------|
             . . . . . .

-------------------------------------------------------------------------|
8-9-9--9--9--9--9--9--8-9-8-9-8-9-8h9-8h9-8h9-8-9-8-9-8-9-8h9-8h9-8h9-9~-|
----13-13-13-13-13-13----------------------------------------------------|
-------------------------------------------------------------------------|
-------------------------------------------------------------------------|
-------------------------------------------------------------------------|
                       . . . . . .             . . . . . .

[Bridge 3] - [02:04] - [02:34]
- -------------------------------------------------------------------------|
- -8-9-8-9-8-9-8h9-8h9-8h9-7-8-7-8-7-8-7h8-7h8-7h8-------------------------|
- -------------------------------------------------------------------------|
- -------------------------------------------------------------------------|
- --------------------------------------------------[                    ]-|
- -------------------------------------------------------------------------|
  . . . . . .              . . . . . .

-------------------------------------------------------------------------|
-8-9-8-9-8-9-8h9-8h9-8h9-7-8-7-8-7-8-7h8-7h8-7h8-------------------------|
-------------------------------------------------------------------------|
-------------------------------------------------------------------------|
--------------------------------------------------[                    ]-|
-------------------------------------------------------------------------|
  . . . . . .              . . . . . .

-------------------------------------------------------------------------|
-14----------------------------------14----------------------------------|
----12-14-12-13-12----------------------12-14-12-13-12-------------------|
-------------------12-11-------------------------------12-11-------------|
-------------------------12-11-------------------------------12-11-------|
-------------------------------12-11-------------------------------12-11-|

--------------------------------------------------------------------------|
14------------------------------------------------------------------------|
---12-14-12-13-12---------------------------------------------------------|
------------------12-11---------------------------11-11-------------11-11-|
-------------------------12-11--------------11-11-------------11-11-------|
-------------------------------12-11--11-11-------------11-11-------------|

[Chorus 3] - [02:34] - [03:06]
- -------------------------------------------------------------------------|
- -8-9-8-9-8-9-9--9--9--9--9--9--8-9-8-9-8-9-9--9--9--9--9--9--8-9-8-9-8-9-|
- -------------13-13-13-13-13-13-------------13-13-13-13-13-13-------------|
- -------------------------------------------------------------------------|
- -------------------------------------------------------------------------|
- -------------------------------------------------------------------------|
                                                               . . . . . .

--------------------------------------------------------------------------|
8h9-8h9-8h9-8-9-8-9-8-9-8h9-8h9-8h9-8-9-8-9-8-9-9--9--9--9--9--9--8-9-8-9-|
------------------------------------------------13-13-13-13-13-13---------|
--------------------------------------------------------------------------|
--------------------------------------------------------------------------|
--------------------------------------------------------------------------|
             . . . . . .

------------------------------------------------------------------------|
8-9-9--9--9--9--9--9--8-9-8-9-8-9-8h9-8h9-8h9-8-9-8-9-8-9-8h9-8h9-8h9---|
----13-13-13-13-13-13---------------------------------------------------|
------------------------------------------------------------------------|
------------------------------------------------------------------------|
------------------------------------------------------------------------|
                       . . . . . .             . . . . . .

Play Chorus 3 twice then end with this: - ----
                                        - -9~-
                                        - ----
                                        - ----
                                        - ----
                                        - ----

[Outro] - [03:06] - [03:35]
- -------------------------------------------------------------------------|
- -19p17p15-19p17p15-19p17p15-19p17p15-19p17p15-19p17p15-19p17p15-19p17p15-|
- -------------------------------------------------------------------------|
- -------------------------------------------------------------------------|
- -------------------------------------------------------------------------|
- -------------------------------------------------------------------------|

-----------------------------------------------------------------------|
19p17p15-18p16p14-17p15p13-16p14p12-15p13p11-14p12p10-13p12p10-12p11p9-|
-----------------------------------------------------------------------|
-----------------------------------------------------------------------|
-----------------------------------------------------------------------|
-----------------------------------------------------------------------|

--------------------------------------------------------|
12p11p9-12p11p9-12p11p9-12p11p9-12p11p9-12p11p9-12p11p9-|
--------------------------------------------------------| This prolly isn't
--------------------------------------------------------| right... :P
--------------------------------------------------------|
--------------------------------------------------------|

-Once again the tuning is CGCFAD, which also applies to my version of "The Levy" by FFTL 
2 i think). So remember that.
- I'm also gonna be doing a Guitar Pro version of this to better help you with the 
so look out for that.

[Symbols]
. = Palm Mute
* = Harmonics
b = Bend
h = Hammer On
p = Pull Off
/ = Slide
 = These are at the end and beginning of most lines to show that the section is not finished yet.
x = Dead Note (String makes very little sounds when you hit it)
R = Rest
[  ] = This is shows that the other guitar is playing here but you stop so you can here 
(When numbers are in it it's just the time from when to start playing to when the 
ends. Usually found above the notes.).
~ = Let Ring

Watch the tuning and try to play it before you judge it. Thanks.

                                                                       -Josh