From First To Last - Secrets Dont Make Friends Chords & Tabs

 

Secrets Dont Make Friends Chords & Tabs

From First To Last Chords & Tabs

Version: 5 Type: Tab

Secrets Dont Make Friends Tab

   
Key:
~  - Let Ring
s  - Slide to Required Note
/  - Pick Slide Down
h  - Hammer On
p  - Pull Off
t  - Tap
<> - Harmonics
*  - Pinch Harmonics
x  - Mute
() - Ghost Note (Play If You Want)
{} - Play Softly
[] - Play Harder
PM... - Palm Mute

Intro: 

Guitar 1
e|----|
b|----|
g|-8~-|
d|-x--|x1
a|-5~-|
D|----|

Guitar 2

e|---|
b|---|
d|---|
g|-/-|x1
a|-/-|
D|-/-|

Guitar 1

e|------------------------------------------|       |-------|
b|------------------------------------------|       |-------|
g|-10-10-10-10--10-10-10-10--9-9-9-9--7-7-7-|       |-7-7-7-|
d|-x--x--x--x---x--x--x--x---x-x-x-x--7-7-7-| <--or |-x-x-x-|x1
a|-8--8--8--8---8--8--8--8---7-7-7-7--5-5-5-|       |-5-5-5-|
D|------------------------------------------|       |-------|

e|------------------------------------------------|
b|------------------------------------------------|
g|-10-10-10-10--10-10-10-10--9-9-9-9--x-x-x-x-<5>-|
d|-x--x--x--x---x--x--x--x---x-x-x-x--x-x-x-x-<3>-|x1 
a|-8--8--8--8---8--8--8--8---7-7-7-7--x-x-x-x-----|
D|------------------------------------------------|   

Guitar 2

e|--------------------------------------|
b|--------------------------------------|
g|--------------------------------------|
d|-0-0-0-0--8-8-8-8--10-10-10-10--5-5-5-|x1
a|-0-0-0-0--8-8-8-8--10-10-10-10--5-5-5-|
D|-0-0-0-0--8-8-8-8--10-10-10-10--5-5-5-|

e|--------------------------------------------|
b|--------------------------------------------|
g|----------------------------------------<7>-|
d|-0-0-0-0--8-8-8-8--10-10-10-10--x-x-x-x-<5>-|x1
a|-0-0-0-0--8-8-8-8--10-10-10-10--x-x-x-x-----|
D|-0-0-0-0--8-8-8-8--10-10-10-10--x-x-x-x-----|



Verse: "This place is a bloodbath..."

Guitar 1

e|---10~---10~------10~-----|
b|---x~----x--------x-------|
g|---7~----7--9s10--10~-12~-|
d|-({0})-({0})----({8})-----|x2
a|-({0})-({0})----({8})-----|
D|-({0})-({0})----({8})-----|

Guitar 2

e|---------------------------------------------|
b|---------------------------------------------|
g|---------------------------------------------|
d|-{0}{0}{0}~-{0}{0}{0}~-{8}{8}{8}~-{8}{8}{8}~-|x2
a|-{0}{0}{0}~-{0}{0}{0}~-{8}{8}{8}~-{8}{8}{8}~-|
D|-{0}{0}{0}~-{0}{0}{0}~-{8}{8}{8}~-{8}{8}{8}~-|
PM  .  .       .  .       .  .       .  .



Verse Pt 2: "You were always my enemy..."

Guitar 1

e|----------------------|
b|----------------------|
g|-----2h3p2------------|
d|-2h3-------3p2p0h2h3--|x8
a|----------------------|
D|----------------------|

Guitar 2 Switches to Guitar 1's old part but it's a little different:

Guitar 2

e|-----10~-----10~----------10~-----|
b|-----x~------x------------x-------|
g|-----7~------7--9~s10-----10~-12~-|
d|-0-0-0~--0-0-0~-------8-8-8--{8}~-|x2
a|-0-0-0~--0-0-0~-------8-8-8--{8}~-|
D|-0-0-0~--0-0-0~-------8-8-8--{8}~-|
PM . .     . .          . .



Chorus: "Your words are deadly weapons..."

Guitar 1

e|-----------------------------------------------|
b|-----------------------------------------------|
g|-10--10-10-10-10--10--10-10-10-10--15-14-12-14-|
d|-x---x--x--x--x---x---x--x--x--x---x--x--x--x--|x4
a|-8---8--8--8--8---8---8--8--8--8---13-12-10-12-|
D|-----------------------------------------------|

Guitar 2

e|-----------------------------------------------------|
b|-----------------------------------------------------|
g|-----------------------------------------------------|
d|-8--8-8-8-8--8--8-8-8-8--0--0-0-0-0--10--10-10-10-10-|x4
a|-8--8-8-8-8--8--8-8-8-8--0--0-0-0-0--10--10-10-10-10-|
D|-8--8-8-8-8--8--8-8-8-8--0--0-0-0-0--10--10-10-10-10-|

Then everyone stops and Guitar 2 plays:

e|-------------------------------|
b|-------------------------------|
g|-------------------------------|
d|-0-0-0-0--8-8-8-8--10-10-10-10-|
a|-0-0-0-0--8-8-8-8--10-10-10-10-|
D|-0-0-0-0--8-8-8-8--10-10-10-10-|

Then everyone comes in when Guitar 2 plays:

Guitar 2

e|-------|
b|-------|
g|-------|
D|-5-5-5-|x1
a|-5-5-5-|
D|-5-5-5-|

Guitar 1 

e|----------|
b|----------|
g|-12-12-12-|
d|-x--x--x--|x1
a|-10-10-10-|
D|----------|

Then play:

e|--------------------------------------------------|
b|--------------------------------------------------|
g|-10-10-10-10--10-10-10-10--9-9-9-9--x-x-x-----<5>-|
d|-x--x--x--x---x--x--x--x---x-x-x-x--x-x-x--<3>----|x1 
a|-8--8--8--8---8--8--8--8---7-7-7-7--x-x-x---------|
D|--------------------------------------------------|   

e|------------------------------------------|       |-------|
b|------------------------------------------|       |-------|
g|-10-10-10-10--10-10-10-10--9-9-9-9--7-7-7-|       |-7-7-7-|
d|-x--x--x--x---x--x--x--x---x-x-x-x--7-7-7-| <--or |-x-x-x-|x1
a|-8--8--8--8---8--8--8--8---7-7-7-7--5-5-5-|       |-5-5-5-|
D|------------------------------------------|       |-------|

e|------------------------------------------------|
b|------------------------------------------------|
g|-10-10-10-10--10-10-10-10--9-9-9-9--x-x-x-x-<5>-|
d|-x--x--x--x---x--x--x--x---x-x-x-x--x-x-x-x-<3>-|x1 
a|-8--8--8--8---8--8--8--8---7-7-7-7--x-x-x-x-----|
D|------------------------------------------------|   

Guitar 2

e|--------------------------------------------|
b|--------------------------------------------|
g|--------------------------------------------|
d|-0-0-0-0--8-8-8-8--10-10-10-10--x-x-x-x-x-x-|x1
a|-0-0-0-0--8-8-8-8--10-10-10-10--x-x-x-x-x-x-|
D|-0-0-0-0--8-8-8-8--10-10-10-10--x-x-x-x-x-x-|

e|--------------------------------------|
b|--------------------------------------|
g|--------------------------------------|
d|-0-0-0-0--8-8-8-8--10-10-10-10--5-5-5-|x1
a|-0-0-0-0--8-8-8-8--10-10-10-10--5-5-5-|
D|-0-0-0-0--8-8-8-8--10-10-10-10--5-5-5-|

e|--------------------------------------------|
b|--------------------------------------------|
g|----------------------------------------<7>-|
d|-0-0-0-0--8-8-8-8--10-10-10-10--x-x-x-x-<5>-|x1
a|-0-0-0-0--8-8-8-8--10-10-10-10--x-x-x-x-----|
D|-0-0-0-0--8-8-8-8--10-10-10-10--x-x-x-x-----|


Verse: "You were my compass..."

Guitar 1

e|---10~---10~------10~-----|
b|---x~----x--------x-------|
g|---7~----7--9s10--10~-12~-|
d|-({0})-({0})----({8})-----|x2
a|-({0})-({0})----({8})-----|
D|-({0})-({0})----({8})-----|

Guitar 2
[ Tab from: http://www.guitartabs.cc/tabs/f/from_first_to_last/secrets_dont_make_friends_tab_ver_5.html ]
e|---------------------------------------------|
b|---------------------------------------------|
g|---------------------------------------------|
d|-{0}{0}{0}~-{0}{0}{0}~-{8}{8}{8}~-{8}{8}{8}~-|x2
a|-{0}{0}{0}~-{0}{0}{0}~-{8}{8}{8}~-{8}{8}{8}~-|
D|-{0}{0}{0}~-{0}{0}{0}~-{8}{8}{8}~-{8}{8}{8}~-|
PM  .  .       .  .       .  .       .  .



Verse Pt 2: "You were always my enemy..."

Guitar 1 (Right Speaker)

e|----------------------|
b|----------------------|
g|-----2h3p2------------|
d|-2h3-------3p2p0h2h3--|x8
a|----------------------|
D|----------------------|

Guitar 2 Switches to Guitar 1's old part but it's a little different:

Guitar 2

e|-----10~-----10~----------10~-----|
b|-----x~------x------------x-------|
g|-----7~------7--9~s10-----10~-12~-|
d|-0-0-0~--0-0-0~-------8-8-8--{8}~-|x2
a|-0-0-0~--0-0-0~-------8-8-8--{8}~-|
D|-0-0-0~--0-0-0~-------8-8-8--{8}~-|
PM . .     . .          . .



Chorus: "Your words are deadly weapons..."

Guitar 1

e|-----------------------------------------------|
b|-----------------------------------------------|
g|-10--10-10-10-10--10--10-10-10-10--15-14-12-14-|
d|-x---x--x--x--x---x---x--x--x--x---x--x--x--x--|x4
a|-8---8--8--8--8---8---8--8--8--8---13-12-10-12-|
D|-----------------------------------------------|

Guitar 2

e|-----------------------------------------------------|
b|-----------------------------------------------------|
g|-----------------------------------------------------|
d|-8--8-8-8-8--8--8-8-8-8--0--0-0-0-0--10--10-10-10-10-|x4
a|-8--8-8-8-8--8--8-8-8-8--0--0-0-0-0--10--10-10-10-10-|
D|-8--8-8-8-8--8--8-8-8-8--0--0-0-0-0--10--10-10-10-10-|



Breakdown: Guitar 1 and 2 switch off playing this part so i lined them up so that they match eachother.

Guitar 1 (Left Speaker)

e|-----------------------------------------|
b|-----------------------------------------|
g|-----------------------------------------|
d|---------7-----0-0-----------3-3-3-3-3-3-|x4
a|-----5p0---8---0-0-----------3-3-3-3-3-3-|
D|-0-0-----------0-0-----------3-3-3-3-3-3-|
PM . .           . .

Guitar 2 (Right Speaker)

e|-----------------------------------------|
b|-----------------------------------------|
g|-----------------------------------------|
d|-0-0-------------------7-----3-3-3-3-3-3-|x4
a|-0-0---------------5p0---8---3-3-3-3-3-3-|
D|-0-0-----------0-0-----------3-3-3-3-3-3-|
PM . .           . .

Then breakdown gets harder: F**K YOU!!! SECRETS DONT MAKE FRIENDS...

Guitar 1 and Guitar 2 play together this time.

Guitar 1

e|---------------------------------------------------|
b|---------------------------------------------------|
g|---------------------------------------------------|
d|-[0]-[0]------7-----[0]-[0]------7-----3-3-3-3-3-3-|x4
a|-[0]-[0]--5p0---8---[0]-[0]--5p0---8---3-3-3-3-3-3-|
D|-[0]-[0]------------[0]-[0]------------3-3-3-3-3-3-|
PM  .   .              .   .

Guitar 2

e|---------------------------------------------------|
b|---------------------------------------------------|
g|---------------------------------------------------|
d|-[0]-[0]------7-----[0]-[0]------7-----3-3-3-3-3-3-|x4
a|-[0]-[0]--5p0---8---[0]-[0]--5p0---8---3-3-3-3-3-3-|
D|-[0]-[0]------------[0]-[0]------------3-3-3-3-3-3-|
PM  .   .              .   .


Clean Pre-Chorus

Guitar 1 (Acoustic or Clean)

e|-5------5------5------5------6------5------3------5------|
b|---6(6)---6(6)---6(6)---6(6)---6(6)---6(6)---6(6)---6(6)-|
g|---------------------------------------------------------|
d|---------------------------------------------------------|x2
a|---------------------------------------------------------|
D|---------------------------------------------------------|

Guitar 2 (Acoustic or Clean)

e|-----------------------------------------------------|
b|-----------------------------------------------------|
g|-----------------------------------------------------|
d|-8--8-8-8-8--8--8-8-8-8--0--0-0-0-0--10--10-10-10-10-|x2
a|-8--8-8-8-8--8--8-8-8-8--0--0-0-0-0--10--10-10-10-10-|
D|-8--8-8-8-8--8--8-8-8-8--0--0-0-0-0--10--10-10-10-10-|


Chorus: "Your words are deadly weapons...(Secret's don't make friends)"

Guitar 1

e|-----------------------------------------------|
b|-----------------------------------------------|
g|-10--10-10-10-10--10--10-10-10-10--15-14-12-14-|
d|-x---x--x--x--x---x---x--x--x--x---x--x--x--x--|x8
a|-8---8--8--8--8---8---8--8--8--8---13-12-10-12-|
D|-----------------------------------------------|

Guitar 2

e|-----------------------------------------------------|
b|-----------------------------------------------------|
g|-----------------------------------------------------|
d|-8--8-8-8-8--8--8-8-8-8--0--0-0-0-0--10--10-10-10-10-|x8
a|-8--8-8-8-8--8--8-8-8-8--0--0-0-0-0--10--10-10-10-10-|
D|-8--8-8-8-8--8--8-8-8-8--0--0-0-0-0--10--10-10-10-10-|


Outro: "Secrets don't...(SECRETS DON'T MAKE FRIENDS!)...make friends."

Guitar 1 (Left Speaker)

e|------------------------------------------------------------|
b|------------------------------------------------------------|
g|--------------------------------------------------------5---|
d|-[0]-[0]-------7-----[0]-[0]-------7-----3-3-3--5h7p5-3---2-|x4
a|-[0]-[0]---5p0---8---[0]-[0]---5p0---8---3-3-3--------------|
D|-[0]-[0]-------------[0]-[0]-------------3-3-3--------------|
PM  .   .               .   .

Guitar 2 (Right Speaker)

e|------------------------------------------------------------|
b|------------------------------------------------------------|
g|--------------------------------------------------------2---|
d|-[0]-[0]-------7-----[0]-[0]-------7-----3-3-3--3h5p3-------|x4
a|-[0]-[0]---5p0---8---[0]-[0]---5p0---9---3-3-3--------5---3-|
D|-[0]-[0]-------------[0]-[0]-------------3-3-3--------------|
PM  .   .               .   .


And Finally...

Guitar 1 (Left Speaker)

e|----------------------------------------|
b|----------------------------------------|
g|------------------------------------5---|
d|-[0]-[0]---[0]-[0]---3-3-3--5h7p5-3---2-|x2
a|-[0]-[0]---[0]-[0]---3-3-3--------------|
D|-[0]-[0]---[0]-[0]---3-3-3--------------|
PM  .   .     .   .

Guitar 2 (Rigt Speaker)

e|----------------------------------------|
b|----------------------------------------|
g|------------------------------------2---|
d|-[0]-[0]---[0]-[0]---3-3-3--3h5p3-------|x2
a|-[0]-[0]---[0]-[0]---3-3-3--------5---3-|
D|-[0]-[0]---[0]-[0]---3-3-3--------------|
PM  .   .     .   .


AND THAT'S IT! I believe the harmonics are correct too. If you have any questions
or comments, e-mail me at odxballx13@gmail.com.