From First To Last - Secrets Dont Make Freinds Chords & Tabs

 

Secrets Dont Make Freinds Chords & Tabs

From First To Last Chords & Tabs

Version: 1 Type: Tab 0 ratings
1 star 2 stars 3 stars 4 stars 5 stars
comments

Secrets Dont Make Freinds Tab

   
This Song has two guitars, one of wich is tuned to drop d, but doesnt need to be, but I 
tab it as it is..
the guitar tuned in drop D follows the bass lines for the intro riff and the chorus
..........................................................................
h=Hammer
p=pull off
#=continued hammer
PM=palm mute
x=mute
>>=pic slide
~=ring
+=harmonic
................................................................
Start

Guitar 1
E---------------|
A-5---->>>>>>>>-|
D-7-------------|
G-7-------------|
B---------------|
e---------------|

Guitar 2
D-0--------------|>>>>>>>>
A-0--------------|>>>>>>>>
D-0--------------|
G----------------|
B----------------|
e----------------|
..............................................................

Intro Riff

Guitar 1
E------------------------x-x-x-|
A- 8 8 8 8- 8 8 8 8-7777-5-5-5-|
D-10101010-10101010-9999-7-7-7-|
G-10101010-10101010-9999-7-7-7-|
B------------------------------|
e------------------------------|

guitar 2                                           >x2
D-0000-8888-10101010-----0-0-0-|
A-0000-8888-10101010-----5-5-5-|
D------------------------7-7-7-|
G------------------------7-7-7-|
B------------------------------|
e------------------------------|

..................................................................
verse

Guitar 1
E-------------|
A-------------|
D--7p---------|
G----10-9-7#9-|  Each time with a beat inbetween x16 Runs into prechorus
B-------------|
e-------------|

Guitar 2
D------------------|
A------------------|
D------------------|
G-7~-9p7h9-10~-12~-| x 2
B------------------|
e------------------|
................................................................

PreChorus

Guitar 2
D-00-5p-----------|
A-00---8-p7-5#7#8-|
D-00--------------|
G-----------------| x8
B-----------------|
e-----------------|
PM..
...............................................................

CHORUS

Guitar 1
E---------------------------------|
A- 8 8 8 8- 8 8 8 8-131313-121212-|
D-10101010-10101010-151515-101010-|
G---------------------------------|
B---------------------------------|
e---------------------------------|
                                         >x4
Guitar 2
D-8888-8888-7777-10101010-|
A-8888-8888-7777-10101010-|
D-8888-8888-7777-10101010-|
G-------------------------|
B-------------------------|
e-------------------------|
..............................................................

Interlude
guitar 2
D-0000-8888-10101010-----0-0-0-|
A-0000-8888-10101010-----5-5-5-|
D------------------------7-7-7-|
G------------------------7-7-7-|
B------------------------------|
e------------------------------|

guitar 1
E------------------------x-x-x-|
A------------------------5-5-5-|
D------------------------7-7-7-|
B------------------------7-7-7-|
G------------------------------|
e------------------------------|
.............................................................
re-intro

E------------------------xxxxx-|
A- 8 8 8 8- 8 8 8 8-7777-xxxxx-|
D-10101010-10101010-9999-xxxxx-|
G-10101010-10101010-9999-xxxxx-|
B------------------------------|
e------------------------------|

Guitar 2
D-0000-8888-10101010-----xxxx12+-|
A-0000-8888-10101010-----xxxx12+-|
D------------------------xxxx----|
G------------------------xxxx----|
B--------------------------------|
e--------------------------------|

Guitar 1
E------------------------x-x-x-|
A- 8 8 8 8- 8 8 8 8-7777-5-5-5-|
D-10101010-10101010-9999-7-7-7-|
G-10101010-10101010-9999-7-7-7-|
B------------------------------|
e------------------------------|
[ Tab from: http://www.guitartabs.cc/tabs/f/from_first_to_last/secrets_dont_make_freinds_tab.html ]
guitar 2
D-0000-8888-10101010-----0-0-0-|
A-0000-8888-10101010-----5-5-5-|
D------------------------7-7-7-|
G------------------------7-7-7-|
B------------------------------|
e------------------------------|

E------------------------------|
A- 8 8 8 8- 8 8 8 8-7777-------|
D-10101010-10101010-9999-------|
G-10101010-10101010-9999-------|
B------------------------------|
e------------------------------|

Guitar 2
D-0000-8888-10101010-----------|
A-0000-8888-10101010-----------|
D------------------------------|
G------------------------------|
B------------------------------|
e------------------------------|
..................................................................
verse

Guitar 1
E-------------|
A-------------|
D--7p---------|
G----10-9-7#9-|  Each time with a beat inbetween x16 Runs into prechorus
B-------------|
e-------------|

Guitar 2
D------------------|
A------------------|
D------------------|
G-7~-9p7h9-10~-12~-| x 2
B------------------|
e------------------|
................................................................

PreChorus

Guitar 2
D-00-5p-----------|
A-00---8-p7-5#7#8-|
D-00--------------|
G-----------------| x8
B-----------------|
e-----------------|
PM..
...................................................
CHORUS

Guitar 1
E---------------------------------|
A- 8 8 8 8- 8 8 8 8-131313-121212-|
D-10101010-10101010-151515-101010-|
G---------------------------------|
B---------------------------------|
e---------------------------------|
                                         >x4
Guitar 2
D-8888-8888-7777-10101010-|
A-8888-8888-7777-10101010-|
D-8888-8888-7777-10101010-|
G-------------------------|
B-------------------------|
e-------------------------|
..............................................................
Bridge

Guitar 1
E-xx------xx------1-1-1-------|
A-xx-5p---xx------3-3-3-1-1-1-|
D-xx---7p-xx------3-3-3-3-3-3-|
G-----------------------3-3-3-|
B-----------------------------|
e-----------------------------|
                                       >x8
Guitar 2
D-00------00------1-1-1-1-1-1-|
A-00------00-5p---1-1-1-1-1-1-|
D-00------00---7p-1-1-1-1-1-1-|
G-----------------------------|
B-----------------------------|
E-----------------------------|

.......................................................
Acoustic bit

Guitar 2
D-8888-8888-7777-10101010-|
A-8888-8888-7777-10101010-|
D-8888-8888-7777-10101010-|
G-------------------------|
B-------------------------|
e-------------------------|
                                >x2
Guitar 1
E-------------------------|
A-8----8----13-----10-----|
D--10---10----15-----12---|
G----10---10-----15----12-|
B-------------------------|
e-------------------------|
........................................................
CHORUS

Guitar 1
E---------------------------------|
A- 8 8 8 8- 8 8 8 8-131313-121212-|
D-10101010-10101010-151515-101010-|
G---------------------------------|
B---------------------------------|
e---------------------------------|
                                         x6
Guitar 2
D-00------00------1-1-1----------|
A-00------00-5p---1-1-1----------|
D-00------00---7p-1-1-1----------|
G--------------------------------|
B--------------------------------|
E--------------------------------|
..............
Ending

guitar 1
E-xx----xx--------------------------|
A-xx----xx--------------------9-----|
D-xx----xx------------7p------7-----|
G-----------------------10p9--------|
B-----------------------------------|
e-----------------------------------|

Guitar 2
D-00----00------1-1-1---------------|
A-00----00------1-1-1--------9------|
D-00----00------1-1-1-7p-----7------|
G-----------------------10p9-7------|
B-----------------------------------|
E-----------------------------------|
Comments