From First To Last - Ride The Wings Of Pestilence Chords & Tabs

 

Ride The Wings Of Pestilence Chords & Tabs

From First To Last Chords & Tabs

Version: 5 Type: Tab 0 ratings
1 star 2 stars 3 stars 4 stars 5 stars
comments

Ride The Wings Of Pestilence Tab

   
From First To Last
Ride The Wings of Pestilence
Dear Diary My Teen Angst Has A Bodycount


Drop-D

Key
~ let ring out
' Palm Mute
^ bend 1/4 step

Intro(Guitar One Only)
e---------------------------------------------------------------------------|
b---8-8-8-8---------8-8-8-8---------10-10-10-10---------11-11-11-11---------|
g-----------7-7-7-7---------7-7-7-7-------------7-7-7-7-------------7-7-7-7-|
d---------------------------------------------------------------------------|
a---------------------------------------------------------------------------|
D---------------------------------------------------------------------------|


Intro(Guitar Two Comes In)
e-------------|
b-------------|
g-------------|
d---1~---1-1--|
a---1~---1-1--|
D---1~---1-1--|


Guitar One continues With His Riff(his being general for their)

Intro Part II(Guitar Two)
e----------------------------------------------|
b----------------------------------------------|
g----------------------------------------------|
d---1-1-1-1-1-1-1-1--5-5-5-5-5-5--8-8-8-8-8-8--|
a---1-1-1-1-1-1-1-1--5-5-5-5-5-5--8-8-8-8-8-8--|
D---1-1-1-1-1-1-1-1--5-5-5-5-5-5--8-8-8-8-8-8--|

Intro Part II(Guitar Two)same chords different strumming
e--------------------------------------------------|
b--------------------------------------------------|
g--------------------------------------------------|
d---1---1--1-1-1--1-1-1--5-5-5-5-5-5--8-8-8-8-8-8--|
a---1---1--1-1-1--1-1-1--5-5-5-5-5-5--8-8-8-8-8-8--|
D---1---1--1-1-1--1-1-1--5-5-5-5-5-5--8-8-8-8-8-8--|

Intro Part II(Guitar One)
e-------------------------10------------------------------------10----------|
b---8--8--8-8-8-10-8-8-8-----13-11-10---8-8-8-8-8-8-10-10-10-10----13-11-10-|
g---------------------------------------------------------------------------|
d---------------------------------------------------------------------------|
a---------------------------------------------------------------------------|
D---------------------------------------------------------------------------|

Intro Ending(Guitar One Only)
e---10-----------10----------10----------10----------|
b------13-11-10-----13-11-10----13-11-10---13-11-10--|
g----------------------------------------------------|
d----------------------------------------------------|
a----------------------------------------------------|
D----------------------------------------------------|

Verse 1
e------------------------------------------------------------------------|
b------------------------------------------------------------------------|
g------------------------------------------------------------------------|
d---5-5-5--5~--5-5-5-5--5-5-5-5--5-5-5-5----1-1-1--1~--1-1-1-1--1-1-1-1--|
a---5-5-5--5~--5-5-5-5--5-5-5-5--5-5-5-5----1-1-1--1~--1-1-1-1--1-1-1-1--|
D---5-5-5--5~--5-5-5-5--5-5-5-5--5-5-5-5----1-1-1--1~--1-1-1-1--1-1-1-1--|
               ' ' ' '  ' ' ' '  ' ' ' '               ' ' ' '  ' ' ' '

Pre Chours(this is the best i could get)
e-------------------|
b-------------------|
g-----2-0-2---2-0-2-|
d---0-------0-------|
a-------------------|
D-------------------|
[ Tab from: http://www.guitartabs.cc/tabs/f/from_first_to_last/ride_the_wings_of_pestilence_tab_ver_5.html ]
Chours
e------------------------------------------------------------------------|
b------------------------------------------------------------------------|
g---------------------5-5-5-5----8-8-8-8---------------------------------|
d---5-5-5-5--1-1-1-1--5-5-5-5----x-x-x-x---8-8-8-8-8-8-8-8--0-0-0--8-8-8-|
a---5-5-5-5--1-1-1-1--3-3-3-3----6-6-6-6---8-8-8-8-8-8-8-8--0-0-0--------|
D---5-5-5-5--1-1-1-1-----------------------8-8-8-8-8-8-8-8--0-0-0--------|
                                                            ' ' '
Chours(Cont.)
e-----------------|
b-----------------|
g-----------------|
d---0-0-0--7-7-7--|
a---0-0-0---------|
D---0-0-0---------|


Post Chours
e------------------------------------------|
b------------------------------------------|
g---3-3-3-3-3-----10-10-10-10-10---8-8-8-8-|
d------------------------------------------|
a------------------------------------------|
D------------------------------------------|

Interlude(Do this riff through scream and singing part just change strumming)
e----------------------------------------------------------------------|
b----------------------------------------------------------------------|
g----------------------------------------------------------------------|
d---5-5-5-5-5-5---5-5-5-5-5-5---1-1-1-1-1-1--1-1-1-1-1-1---------------|
a---5-5-5-5-5-5---5-5-5-5-5-5---1-1-1-1-1-1--1-1-1-1-1-1--1p0----------|
D---5-5-5-5-5-5---5-5-5-5-5-5---1-1-1-1-1-1--1-1-1-1-1-1------3p0-0h1--|


Pre Chours
e-------------------|
b-------------------|
g-----2-0-2---2-0-2-|
d---0-------0-------|
a-------------------|
D-------------------|

e----------------------------------------------------------------------|
b----------------------------------------------------------------------|
g----------------------------------------------------------------------|
d---5-5-5-5-5--5-5-5-5-5-5--5-5-5-5-5-5--------------------------------|
a---5-5-5-5-5--5-5-5-5-5-5--5-5-5-5-5-5--------------------------------|
D---5-5-5-5-5--5-5-5-5-5-5--5-5-5-5-5-5--------------------------------|


Chours
e-------------------------------------------------------------------------|
b-------------------------------------------------------------------------|
g---------------------5-5-5-5----8-8-8-8----------------------------------|
d---5-5-5-5--1-1-1-1--5-5-5-5----x-x-x-x---5-5-5-5--1-1-1-1--0-0-0--8-8-8-|
a---5-5-5-5--1-1-1-1--3-3-3-3----6-6-6-6---5-5-5-5--1-1-1-1--0-0-0--------|
D---5-5-5-5--1-1-1-1-----------------------5-5-5-5--1-1-1-1--0-0-0--------|
                                                             ' ' '
Chours(Cont.)
e-----------------|
b-----------------|
g-----------------|
d---0-0-0--7-7-7--|
a---0-0-0---------|
D---0-0-0---------|

Outro
e----------------------------------10^-10^-10^-10^-10^---|
b--------------------------------------------------------|
g--------------------------------------------------------|
d---0~--0-0----0~-0-0---------0-0------------------------|
a---0~--0-0----0~-0-0---------0-0------------------------|
D---0~--0-0----0~-0-0---------0-0------------------------|
        ' '       ' '         ' '

Enjoy it, I know some things are missing, sorry, From First TO Last=great band
Comments