From First To Last - Ride The Wings Of Pestilence Chords & Tabs

 

Ride The Wings Of Pestilence Chords & Tabs

From First To Last Chords & Tabs

Version: 1 Type: Tab 2 ratings
1 star 2 stars 3 stars 4 stars 5 stars
comments

Ride The Wings Of Pestilence Tab

Artist: From First To Last
Song: Ride The Wings Of Pestilence
Album: Dear Diary, My Teen Angst Has A Body Count (Track 11)
Length: 4m 27s
Tabbed By: Smurfpunk484 (AIM) Mark Webster

Tuning: Drop D

~ let ring out
* Palm Mute

This tab took me forever to finish.... and its my first time too so...
im pretty sure its 100% correct.... all the other tabs missed alot of 
small, hard to hear parts, if you want to play this song perfectly i 
prefer that you use this tabulature... PLEASE RATE!!!!!!!!!!!!


Intro - Guitar 1 - 0:00-0:20 
e---3-(x4)----------3-(x4)----------5-(x4)----------6-(x4)------------|
b-----------3-(x4)----------3-(x4)----------3-(x4)----------3-(x4)----|
g---------------------------------------------------------------------|
d---------------------------------------------------------------------|(x4)
a---------------------------------------------------------------------|
D---------------------------------------------------------------------|


Intro - Guitar 2 - 0:05-0:08
e-------------|
b-------------|
g-------------|
d---1~---1-1--|
a---1~---1-1--| pick scripe after
D---1~---1-1--|

 0:10-0:20
e------------------------------|
b------------------------------|
g------------------------------|
d---1--------5-------8---------|(x2)
a---1-(x16)--5-(x8)--8-(x8)----|
D---1--------5-------8---------|

 0:20 - 0:30
e--------------------------------------------------|
b--------------------------------------------------|
g--------------------------------------------------|
d---1--1--1-1-1-1--1--1-1-1-5--5--5-5-5-8--8--8----|(x2)
a---1--1--1-1-1-1--1--1-1-1-5--5--5-5-5-8--8--8----|
D---1--1--1-1-1-1--1--1-1-1-5--5--5-5-5-8--8--8----|


Guitar 1 - 0:20 - 0:23
e---------------------10--------------|
b---10-10-10-11-10-10----13-11-10-----|
g-------------------------------------|
d-------------------------------------|
a-------------------------------------|
D-------------------------------------|

 0:23 - 0:30
e---------------10----------------|
b---10-11-10-10----13-11-10-------|
g---------------------------------|
d---------------------------------|(x3)
a---------------------------------|
D---------------------------------|

 0:30 - 0:35
e---10---------------|
b------13-11-10------|
g--------------------|
d--------------------|(x8)
a--------------------|
D--------------------|


Guitar 2 - 0:30 - 0:35
e-----1--------------|
b-------2------------|
g---2-----3-2--------|
d--------------------|
a--------------------|
D--------------------|


Guitar 1 - 0:35 - 0:53
e----------------------------------|-------------------------------|
b----------------------------------|-------------------------------|
g------8h10-10p8-6/10-10\6---------|------7h9-9p7-5/9-9\5----------|
d---10-----------------------(x2)--|---10-----------------(x2)-----|(x2)
a----------------------------------|-------------------------------|
D----------------------------------|-------------------------------|

 0:53 - 0:55
e--------------------------|
b------7h9-9p7--9p7--------|
g---10--------------10p8---|
d--------------------------|
a--------------------------|
D--------------------------|


Guitar 2 - 0:35 - 0:55
e--------------------------------------------------------------------------|
b--------------------------------------------------------------------------|
g--------------------------------------------------------------------------|
d---5------5-5--5------5------5------1------1-1--1------1------1-----------|(x2)
a---5-(x4)-5-5--5-(x4)-5-(x4)-5-(x4)-1-(x4)-1-1--1-(x4)-1-(x4)-1-(x4)------|
D---5------5-5--5------5------5------1------1-1--1------1------1-----------|


Guitar 1 - 0:55 - 1:04
e---------------------------------|
b---------------------------------|
g-----2-0----2-0---2-0-----0------|
d---0------0-----0-----0-4--------|(x2)
a---------------------------------|
D---------------------------------|


Guitar 2 - 0:55 - 1:02 (quiet) - 1:02 - 1:04 (pick scrape)


Guitar 1 + 2 - 1:04 - 1:21
e--------------------------------------------------------------------------|
b--------------------------------------------------------------------------|
g--------------------3------8--8-8-8---------------------------------------|
d---5------1--1-1-1--5-(x4)-x--x-x-x--3--------------8-8-8-------7-7-7-----|(x2)
a---5-(x4)-1--1-1-1--5------6--6-6-6--3-(x7)---5-5-5-------5-5-5-----------|
D---5------1--1-1-1-------------------3------------------------------------|
                                               * * *       * * *
[ Tab from: http://www.guitartabs.cc/tabs/f/from_first_to_last/ride_the_wings_of_pestilence_tab.html ]
Guitar 1 - 1:21 - 1:43
e------------------------------------------|
b---5--4-(x5)--3-(x6)----------------------|
g----------------------10-(x6)--8-(x6)-----|
d------------------------------------------|(x5)
a------------------------------------------|
D------------------------------------------|

Guitar 2 - 1:26 - 1:43
e----------------------------------------------|
b----------------------------------------------|
g----------------------------------------------|
d---5------5------1------1---------------------|(x2)
a---5-(x7)-5-(x7)-1-(x7)-1-(x6)-3p0------------|
D---5------5------1------1----------3p0-0h3----|

 1:43 - 2:00
e-------------------------------------------------------------------|
b-------------------------------------------------------------------|
g-------------------------------------------------------------------|
d---5------5------5------5------1------1------1---------------------|(x2)
a---5-(x5)-5-(x5)-5-(x5)-5-(x5)-1-(x5)-1-(x5)-1-(x5)-3p0------------|
D---5------5------5------5------1------1------1----------3p0-0h3----|


Guitar 1 - 1:43 - 2:00
e--------------------------------------------------------------|
b--------------------------------------------------------------|
g---8------8------8------8------5------5------5------5---------|
d---8-(x5)-8-(x5)-8-(x5)-8-(x5)-5-(x5)-5-(x5)-5-(x5)-5-(x5)----|(x2)
a---6------8------6------6------3------3------3------3---------|
D--------------------------------------------------------------|


Guitar 1 - 2:00 - 2:27
e-------------------------------------------------|-------------------------------|
b---------------------------------------8-------8-|------8-10---------------------|
g-----2-0-----2-0-----2-0-------0-----5-------5---|---11------8-10-11------8-10---|
d---0-------0-------0-------0-4-----0-------0-----|-------------------8-10--------|(x3)
a-------------------------------------------------|-------------------------------|
D-------------------------------------------------|-------------------------------|
                                                  |
                                                  |
Guitar 2 - 2:07 - 2:09 , 2:16 - 2:18 , 2:25 - 2:27|
                                                  e-------------------------------------|
                                                  b-------------------------------------|
                                                  g-------------------------------------|
                                                  d---10-10-10-8-8-8-7-7-7--------------|(x3)
                                                  a------------------------10-10-10-----|
                                                  D-------------------------------------|

Guitar 1 + 2 - 2:27 - 2:35
Guitar 1--------------------------------|
Guitar 2--------------------|pick scrape|
e---------------------------|-----------|
b---------------------------|-----------|
g---------------------------|-----------|
d---5------5------5------5--|----5-5----|
a---5-(x7)-5-(x7)-5-(x7)-5-(x5)--5-5----|
D---5------5------5------5-------5-5----|

 2:35 - 3:10
e--------------------------------------------------------------------------|
b--------------------------------------------------------------------------|
g--------------------3------8--8-8-8---------------------------------------|
d---5------1--1-1-1--5-(x4)-x--x-x-x--3--------------8-8-8-------7-7-7-----|(x4)
a---5-(x4)-1--1-1-1--5------6--6-6-6--3-(x7)---5-5-5-------5-5-5-----------|
D---5------1--1-1-1-------------------3------------------------------------|
                                               * * *       * * *

 3:10 - 3:12
e-------------------------------|
b-------------------------------|
g-------------------------------|
d---------8-8-8-------7-7-7-----|
a---5-5-5-------5-5-5-----------|
D-------------------------------|
    * * *       * * *
                             

Guitar 1 - 3:12 - 3:29
e--------------------------|
b---11-(x12)--10-(x12)-----|
g--------------------------|
d--------------------------|(x4)
a--------------------------|
D--------------------------|


Guitar 2 - 3:12 - 3:29
e-------------------|
b-------------------|
g-------------------|
d---0--0~---0-0~----|(x4)
a---0--0~---0-0~----|
D---0--0~---0-0~----|
    *       * *

Guitar 1 - 3:29 - 4:25
e------10----------10------------------|
b---11-11-(x5)--11-11-(x5)-10-(x12)----|
g--------------------------------------|
d--------------------------------------|(x13)
a--------------------------------------|
D--------------------------------------|


Guitar 2 - 3:29 - 4:25
e-----10-(x5)---10-(x5)---------|
b-------------------------------|
g-------------------------------|
d---0---------0---------0-0~----|(x13)
a---0---------0---------0-0~----|
D---0---------0---------0-0~----|
    *         *         * *

Guitar 1 - 4:25 - 4:27
e-----10---------|
b--11-11-(x3)----|
g----------------|
d----------------|
a----------------|
D----------------|


Guitar 2 - 4:25 - 4:27
e--------|
b--------|
g--------|
d---0----|
a---0----|
D---0----|
    *
Comments