From First To Last - Ride The Wings Of Pestilance Chords & Tabs

 

Ride The Wings Of Pestilance Chords & Tabs

From First To Last Chords & Tabs

Version: 1 Type: Bass Tab

Ride The Wings Of Pestilance Bass Tab

   
Intro
G|-------------|
D|-------------|
A|-------------|
D|---1~---1-1--|

G|-------------------------------------------------------------------|
D|-------------------------------------------------------------------|
A|-------------------------------------------------------------------|X2
D|-1-1-1-1-1-1-1-1-1-1-1-1-1-1-1-1--5-5-5-5-5-5-5-5--8-8-8-8-8-8-8-8-|

G|--------------------------------------------------|
D|--------------------------------------------------|
A|--------------------------------------------------|X2
D|---1--1--1-1-1-1--1--1-1-1-5--5--5-5-5-8--8--8----|
   there is a little fill in here...but this is easier


G|-------------------|
D|-------------------|
A|-------------------|
D|--5~---------------|

Verse 
G|------------------------------------------|
D|------------------------------------------|
A|------------------------------------------|
D|-5-5-5-5--5-5~--5-5-5-5--5-5-5-5--5-5-5-5-|

G|------------------------------------------|
D|------------------------------------------|
A|------------------------------------------|X2
D|-1-1-1-1--1-1~--1-1-1-1--1-1-1-1--1-1-1-1-|

Bridge
G|-----------------|
D|-2--2--2---------|
A|-----------0000--|X2 <---------im not sure about this part,
D|-----------------|              sumbody sort it out please

Chorus
G|-------------------------------------------------------------|
D|-------------------------------------------------------------|
A|-------------------------------------------------------------|
D|-5-5-5-5-5-5-1-1-1-1-1-1-8-8-8-8-8-8-8-8-8-8-8-8-1-1-1-1-1-1-|

G|--------------------------|
D|--------------------------|
A|--------------------------|X2
D|-0-0-0-------0-0-0--------|

Verse
G|-------------------------------------------------------------|
D|-------------------------------------------------------------|
A|-------------------------------------------------------------|X2
D|---5-5-5-5-5-5-5--5-5-5-5-5-5-5--1-1-1-1-1-1-1--1-1-1-1-1-1--|
[ Tab from: http://www.guitartabs.cc/tabs/f/from_first_to_last/ride_the_wings_of_pestilance_btab.html ]
G|--------------------------------------------|
D|--------------------------------------------|
A|--------------------------------------------|
D|-5-5-5-5-5--5-5-5-5-5--5-5-5-5-5--5-5-5-5-5-|
|
G|--------------------------------------------|
D|--------------------------------------------|
A|--------------------------------------------|X2
D|-1-1-1-1-1--1-1-1-1-1--1-1-1-1-1--1-1-1-1-1-|

Bridge
G|-----------------|
D|-2--2--2---------|
A|-----------0000--| <---------im not sure about this part,
D|-----------------|              sumbody sort it out please

G|-------------------------------------------------------------------------|
D|-------------------------------------------------------------------------|
A|-------------------------------------------------------------------------|
D|5-5-5-5-5-5-5--5-5-5-5-5-5-5--5-5-5-5-5-5-5--5-5-5-5-5-5-5-5-5-5-5-5-5-5-|

Chorus
G|-------------------------------------------------------------|
D|-------------------------------------------------------------|
A|-------------------------------------------------------------|
D|-5-5-5-5-5-5-1-1-1-1-1-1-8-8-8-8-8-8-8-8-8-8-8-8-1-1-1-1-1-1-|

G|--------------------------|
D|--------------------------|
A|--------------------------|X2
D|-0-0-0-------0-0-0--------|

G|-------------------------------------------------------------|
D|-------------------------------------------------------------|
A|-------------------------------------------------------------|
D|-5-5-5-5-5-5-1-1-1-1-1-1-8-8-8-8-8-8-8-8-8-8-8-8-1-1-1-1-1-1-|

G|--------------------------------------------------|
D|--------------------------------------------------|
A|--------------------------------------------------|X2
D|-0-0-0-------0-0-0-------0-0-0-------0-0-0--------|

Outro
G|----------------|
D|----------------|
A|----------------|X4
D|--0-0~~-----00--|


G|-----------------------------------|
D|-----------------------------------|
A|----55555-------55555--------0-0~--|X13
D|--0------------0-------------0-0~--|

END