From First To Last - One-armed Boxer Vs The Flying Guillotine Chords & Tabs

 

One-armed Boxer Vs The Flying Guillotine Chords & Tabs

From First To Last Chords & Tabs

Version: 3 Type: Tab 0 ratings
1 star 2 stars 3 stars 4 stars 5 stars
comments

One-armed Boxer Vs The Flying Guillotine Tab

                          GUITAR 1
INTRO
|---------------------------------------------------|
|---------------------------------------------------|
|--11-1111------11-1111-----11---11-1111------------|
|--9--9-9--0000-9--9-9--00009-00-9--9-9--0000-0~~---|
|--9--9-9--0000-9--9-9--00009-00-9--9-9--0000-0~~---|
|--9--9-9--0000-9--9-9--00009-00-9--9-9--0000-0~~---|

|----------|
|----------|
|--11-1111-|
|--9--9-9--|
|--9--9-9--|
|--9--9-9--|

|---------------------------------------------------|
|---------------------------------------------------|   x4
|--11-1111------11-1111-----11---11-1111------------|
|--9--9-9--0000-9--9-9--00009-00-9--9-9--0000-0~~---|
|--9--9-9--0000-9--9-9--00009-00-9--9-9--0000-0~~---|
|--9--9-9--0000-9--9-9--00009-00-9--9-9--0000-0~~---|

VERSE
|------------------x-x---0-xxxxx---x-x---0-xxxxx--|
|------------------x-x---0-xxxxx---x-x---0-xxxxx--|
|------------------x-x---0-xxxxx---x-x---0-xxxxx--|
|--12--11--7--9--2-x-x-2-0-xxxxx-2-x-x-2-0-xxxxx--|
|--9---9---5--5--2-x-x-2-0-xxxxx-2-x-x-2-0-xxxxx--|
|--9---9---5--5--2-x-x-2-0-xxxxx-2-x-x-2-0-xxxxx--|
  ^^^^^^^^^^^^^^figure out the strumming for those
|-------------------------------------------------------|
|----------------3-333333-2-22------3-333333-2-22-------|
|----------------x-------------2-22-x-------------2-22--|
|--12--11--7--9--2------------------2-------------------|
|--9---9---5--5--2------------------2-------------------|
|--9---9---5--5--2------------------2-------------------|

NEXT
|---------------------------------|
|---------------------------------|   x4
|-----------------77--------------|
|--5-5-------7-99-77-7------------|
|--5-5-(x12)-7-99-55-7-4-5-7-5-4--|
|--5-5-------7-99----7------------|

THEN
|----xxx-----xxx-------------------------10----|
|----xxx-----xxx------------------12---12--12--|   x2
|----xxx-----xxx----------------12---12--------|
|--9-xxx-9-9-xxx-9-12-1212-1212----------------|
|--9-xxx-9-9-xxx-9-12-1212-1212----------------|
|--9-xxx-9-9-xxx-9-12-1212-1212----------------|

NEXT
|-----------------------------------------------|
|-----------------------------------------------|   x2
|-----------------------------------------------|
|--9-99-797-9-99-797-12-1212-1212-12-1212-1212--|
|--9-99-797-9-99-797-12-1212-1212-12-1212-1212--|
|--9-99-797-9-99-797-12-1212-1212-12-1212-1212--|

THEN PLAY THE VERSE AGAIN

then this
|------------------------------------|
|------------------------------------|
|--11111111----------11111111--------|
|--11111111-000-000--11111111-00-0---|
|--9-9-9-9--000-000--9-9-9-9--00-0---|
|--9-9-9-9--000-000--9-9-9-9--00-0---|
PM          ... ...           .. .

SLOW PART
|------------------------|
|------------------------|
|------------------------|
|--9~-9\5~-5/9~-9\5~-5/--|
|--9~-9\5~-5/9~-9\5~-5/--|
|--9~-9\5~-5/9~-9\5~-5/--|
[ Tab from: http://www.guitartabs.cc/tabs/f/from_first_to_last/one_armed_boxer_vs_the_flying_guillotine_tab_ver_3.html ]
THEN
|------------------------------|
|------------------------------|   x1
|--11111111~------6-666~--679--|
|--11111111~-1211-75555~--555--|
|--9-9-9-9~~-9-9--55555~--555--|
|--9-9-9-9~~-9-9--55555~--555--|
with the harmonic
|--------------------------------|
|--------------------------------|   x3
|--111111-----------6-666~--679--|
|--111111-7*~--1211-75555~--555--|
|--9-9-9-------9-9--55555~--555--|
|--9-9-9-------9-9--55555~--555--|

ENDING 
|--------|
|--------|
|--11~~--|
|--11~~--|
|--9~~~--|
|--9~~~--|



                            GUITAR 2

INTRO
|--10-10-10--|
|--12-12-12--|
|--11-11-11--|
|------------|
|------------|
|------------|

|--10-1010------10-1010-----10---10-1010----------|
|--12-1212------12-1212-----12---12-1212----------|    x4
|--11-1111------11-1111-----11---11-1111----------|
|----------0000---------0000--00---------0000-0~--|
|----------0000---------0000--00---------0000-0~--|
|----------0000---------0000--00---------0000-0~--|

VERSE
|--10---9--5--3---10x-10--9-9--9-9--10x-10--9-9--9-9---|
|--12--12--5--5---12x-12-1212-1010--12x-12-1212-1010---|
|--11--11--4--4---11x-11-1111-1111--11x-11-1111-1111---|
|------------------------------------------------------|
|------------------------------------------------------|
|------------------------------------------------------|
   ^^^^^^^^^^^^ same strumming pattern as the other guitar
NEXT
|---------------------------------|
|---------------------------------|   x4
|-----------------77--------------|
|--5-5-------7-99-77-7------------|
|--5-5-(x12)-7-99-55-7-4-5-7-5-4--|
|--5-5-------7-99----7------------|

THEN
|-----------------------------------------------|
|-----------------------------------------------|   x2
|-----------------------------------------------|
|--9-99-797-9-99-797-12-1212-1212-12-1212-1212--|
|--9-99-797-9-99-797-12-1212-1212-12-1212-1212--|
|--9-99-797-9-99-797-12-1212-1212-12-1212-1212--|


THEN THE VERSE AGAIN

THEN THIS
|------------------------------------------|
|------------------------------------------|
|--11-11-11-11----------11-11-11-11--------|
|--x--x--x--x--000-000--x--x--x--x--00-0~--|
|--9--9--9--9--000-000--9--9--9--9--00-0~--|
|--------------000-000--------------00-0~--|

SLOW PART
|------------------------14--14--12--12--12-12-----------------------
|--12--12--12--12--12-12---------------------------------------------
|----------------------------------------------12--12--12--12--12-12-
|----99--99--99--99--9--9--99--99--99--99--9--9--99--99--99--99--9--9
|--------------------------------------------------------------------
|--------------------------------------------------------------------
-10--10--9--9--9-9----|
----------------------|    x2
----------------------|
---99--99-99-99-9-9---|
----------------------|
----------------------|


THEN
|------------------------------|
|------------------------------|   x1
|-----------------6-666~--679--|
|--11111111~-1211-75555~--555--|
|--9-9-9-9~~-9-9--55555~--555--|
|--9-9-9-9~~-9-9--55555~--555--|

with the harmonic
|--------------------------------|
|--------------------------------|   x3
|--111111-7*~-------6-666~--679--|
|--111111------1211-75555~--555--|
|--9-9-9-------9-9--55555~--555--|
|--9-9-9-------9-9--55555~--555--|

ending
|--------|
|--------|
|--11~~--|
|--11~~--|
|--9~~~--|
|--9~~~--|



Comments