From First To Last - One-armed Boxer Vs The Flying Guillotine Chords & Tabs

 

One-armed Boxer Vs The Flying Guillotine Chords & Tabs

From First To Last Chords & Tabs

Version: 2 Type: Tab 0 ratings
1 star 2 stars 3 stars 4 stars 5 stars
comments

One-armed Boxer Vs The Flying Guillotine Tab

   
-------------------------------------------------------------------------------
	The One Armed Boxer Vs. The Flying Guillotine - From First To Last
-------------------------------------------------------------------------------
Tabbed by: Harrison
Email: fsas_6996@hotmail.com

Tuning: Drop D

                               
   Intro
e|-10-10-10---------10-10-10---------10-----10-10-10---------9--play 4 times-|
B|-7--7--7----------7--7--7----------7------7--7--7----------7---------------|
G|-7--7--7----------7--7--7----------7------7--7--7----------7---------------|
D|----------0-0-0-0----------0-0-0-0----0-0----------0-0-0-0-----------------|
A|----------0-0-0-0----------0-0-0-0----0-0----------0-0-0-0-----------------|
E|----------0-0-0-0----------0-0-0-0----0-0----------0-0-0-0-----------------|
    Verse
e|-10----------9------------10-------10-9-----5--10-------10-9-----5---------|
B|-7--16 times-7--16 times--7--------7--7-----7--7--------7--7-----7---------|
G|-7-----------7------------7--------7--7-----7--7--------7--7-----7---------|
D|-7-----------7---------------0-0-0------0-0-------0-0-0------0-0-----------|
A|-5-----------5---------------0-0-0------0-0-------0-0-0------0-0-----------|
E|-----------------------------0-0-0------0-0-------0-0-0------0-0-----------|

e|-10----------9-------------------------------------------------------------|
B|-7--16 times-7--16 times---------------------------------------------------|
G|-7-----------7-------------------------------------------------------------|
D|-7-----------7-----------7-7-7-7-7-7-7-7-6-6-6-6---------7-7-7-7-7-7-7-7---|
A|-5-----------5-----------------------------------7-7-7-7-------------------|
E|---------------------------------------------------------------------------|
   Interlude
e|-----------------|---------------------------------------------------------|
B|-----------------|-------------------play 4 times--------------------------|
G|-6-6-6-6---------|---------------------------------------------------------|
D|---------7-7-7-7-|-5----------7-9-x-x-12-x-x-7-4h5p4-----------------------|
A|-----------------|-5-15 times-7-9-x-x-12-x-x-7-------7-5-4-----------------|
E|-----------------|-5----------7-9-x-x-12-x-x-7-----------------------------|
   Pre-Verse??   
e|---------------------------------------------------------------------------|
B|---------------------------------------------------------------------------|
G|-----------------------play 2 times----------------------------------------|
D|-9-9-9-x-x-9-x--9-9-9-x-x-9-x--12-12-12-x-x-12-x--11-11-11-x-x-11-x--------|
A|-9-9-9-x-x-9-x--9-9-9-x-x-9-x--12-12-12-x-x-12-x--11-11-11-x-x-11-x--------|
E|-9-9-9-x-x-9-x--9-9-9-x-x-9-x--12-12-12-x-x-12-x--11-11-11-x-x-11-x--------|
[ Tab from: http://www.guitartabs.cc/tabs/f/from_first_to_last/one_armed_boxer_vs_the_flying_guillotine_tab_ver_2.html ]
e|---------------------------------------------------------------------------|
B|---------------------------------------------------------------------------|
G|---------------------------------------------------------------------------|
D|-9-9-9-9-9p0-0-9-9-9-9-9p0-12-12-12-12-12-12-12-12-11-11-11-11-11-11-11-11-|
A|-9-9-9-9-9p0-0-9-9-9-9-9p0-12-12-12-12-12-12-12-12-11-11-11-11-11-11-11-11-|
E|-9-9-9-9-9p0-0-9-9-9-9-9p0-12-12-12-12-12-12-12-12-11-11-11-11-11-11-11-11-|
    2nd Verse
e|-10---------9----------10-------10-9-----5--10-------10-9-----5------------|
B|-7----------7----------7--------7--7-----5--7--------7--7-----5------------|
G|-7-16 times-7-16 times-7--------7--7-----7--7--------7--7-----7------------|
D|-7----------7-------------0-0-0------0-0-------0-0-0------0-0--------------|
A|-5----------5-------------0-0-0------0-0-------0-0-0------0-0--------------|
E|--------------------------0-0-0------0-0-------0-0-0------0-0--------------|

e|-10---------9--------------------------------------------------------------|
B|-7----------7--------------------------------------------------------------|
G|-7-16 times-7-16 times-7-7-7-7-7-7-7-7-6-6-6-6---------7-7-7-7-7-7-7-7-----|
D|-7----------7----------------------------------7-7-7-7---------------------|
A|-5----------5--------------------------------------------------------------|
E|---------------------------------------------------------------------------|

e|-----------------------------------------10-------10-9-----5---------------|
B|-----------------------------------------7--------7--7-----7---------------|
G|-6-6-6-6---------------------------------7--------7--7-----7---------------|
D|---------7-7-7-7--9----------12-------------0-0-0------0-0-----------------|
A|------------------9-16 times-12-16 times----0-0-0------0-0-----------------|
E|------------------9----------12-------------0-0-0------0-0-----------------|

e|---------------------------------------------------------------------------|
B|---------------------------------------------------------------------------|
G|------------------------7-7-7-7-7-7-7-7-6-6-6-6---------7-7-7-7-7-7-7-7-6-6-6-6-|
D|-9----------12----------------------------------7-7-7-7-------------------------7-7-7-7-|
A|-9-16 times-12-16 times----------------------------------------------------|
E|-9----------12-------------------------------------------------------------|
       Bridge
e|---------------------------------------------------------------------------|
B|---------------------------------------------------------------------------|
G|---------------------------------------------------------------------------|
D|-9-9-9-9-x-x-x-x-9-9-9-9-x-x-0-9-9-9-9-x-x-x-x-9-9-9-9-x-x-0-9-------------|
A|-9-9-9-9-x-x-x-x-9-9-9-9-x-x-0-9-9-9-9-x-x-x-x-9-9-9-9-x-x-0-9-------------|
E|-9-9-9-9-x-x-x-x-9-9-9-9-x-x-0-9-9-9-9-x-x-x-x-9-9-9-9-x-x-0-9-------------|
     Outro
e|------------------------------------play 4 times---------------------------|
B|-19-17--------15-14--------------------------------------------------------|
G|-------16-12--------14-16--4/6-6/7-7\6/7/9-7\6/7\6-------------------------|
D|---------------------------x/x-x/x-x\x/x/x-x\x/x\x-------------------------|
A|-------play 2 times--------2/4-4/5-5\4/5/7-5\4/5\4-------------------------|
E|---------------------------------------------------------------------------|
Ending Notes
e|--------|
B|--------|
G|-7----4-|
D|-x----x-|
A|-5----2-|
E|--------|

| /  slide up
| \  slide down
| h  hammer-on
| p  pull-off
| ~  vibrato
| +  harmonic
| x  Mute note
===============================================================================
Comments