From First To Last - One-armed Boxer Vs The Flying Guillotine Chords & Tabs

 

One-armed Boxer Vs The Flying Guillotine Chords & Tabs

From First To Last Chords & Tabs

Version: 1 Type: Tab 0 ratings
1 star 2 stars 3 stars 4 stars 5 stars
comments

One-armed Boxer Vs The Flying Guillotine Tab

   
From First To Last - One-Armed Boxer vs. The Flying Guillotine
Tabbed By: Mitchell Johns
Email: FromFirstToLast795@hotmail.com

Tuning: Drop D (D A D G B E)

I still haven't figured out the very end. Rhythms are only shown at the beginning.

\=slide down
/=slide up
h=hammer on
p=pull off
.=palm mute

D|----------------------------------------------------------------||x1
B|----------------------------------------------------------------||
G|----------------------------------------------------------------||
D|-999-0000-999-0000-9-00-999-0000-0------------------------------||
A|-999-0000-999-0000-9-00-999-0000-0------------------------------||
D|-999-0000-999-0000-9-00-999-0000-0------------------------------||
       ....     ....   ..     ....

Kill the lights!!!!

D|----------------||x1
B|----------------||
G|----------------||
D|-999------------||
A|-999------------||
D|-999------------||


D|----------------------------------------------------------------||x4
B|----------------------------------------------------------------||
G|----------------------------------------------------------------||
D|-999-0000-999-0000-9-00-999-0000-0------------------------------||
A|-999-0000-999-0000-9-00-999-0000-0------------------------------||
D|-999-0000-999-0000-9-00-999-0000-0------------------------------||
       ....     ....   ..     ....

hello ladies and gentleman...

D|------------------------------------------------||x1
B|------------------------------------------------||
G|------7-----7-6-----6-7-----7-6-6---------------||
D|-9-5--x-----x-x-----x-x-----x-x-x---------------||
A|-9-5--5-555-5\4-444-4/5-555-5\4-4---------------||
D|-9-5--------------------------------------------||
          ...     ...     ...


D|------------------------------------------------||x1
B|------------------------------------------------||
G|-------77777766--77777766-----------------------||
D|-9-5-----------77--------77-5-------------------||
A|-9-5------------------------5-------------------||
D|-9-5------------------------5-------------------||



D|------------------------------------------------||x4
B|------------------------------------------------||
G|-4-7--------------------------------------------||
D|-4-7-7--------5---------------------------------||
A|-2-5-7-5h7p54-5---------------------------------||
D|-----7--------5---------------------------------||



D|----------------||x1
B|----------------||
G|---7------------||
D|-9-7-9-0-9------||
A|-9-5-9-0-9------||
D|-9---9-0-9------||

You better make them earn it make them earn it!!!
[ Tab from: http://www.guitartabs.cc/tabs/f/from_first_to_last/one_armed_boxer_vs_the_flying_guillotine_tab.html ]
D|------------------------------------------------||x2
B|------------------------------------------------||
G|-4-7-7-77-7-7-77--------------------------------||
D|-4-7-7-77-7-7-77--------------------------------||
A|-2-5-5-55-5-5-55--------------------------------||
D|-------^----------------------------------------||
  play this chord in time with "make them earn it"

D|------------------------------------------------||x1
B|------------------------------------------------||
G|------7-----7-6-----6-7-----7-6-6---------------||
D|-9-5--x-----x-x-----x-x-----x-x-x---------------||
A|-9-5--5-555-5\4-444-4/5-555-5\4-4---------------||
D|-9-5--------------------------------------------||
          ...     ...     ...


D|------------------------------------------------||x1
B|------------------------------------------------||
G|-------77777766--77777766-----------------------||
D|-9-5-----------77--------77-5-------------------||
A|-9-5------------------------5-------------------||
D|-9-5------------------------5-------------------||
play those two progressions twice through



D|------------------------------------------------||x2
B|------------------------------------------------||
G|------------------------------------------------||
D|-9999-00000-9999-00-0---------------------------||
A|-9999-00000-9999-00-0---------------------------||
D|-9999-00000-9999-00-0---------------------------||
        .....      ..

Guitar 1

D|------------------------------------------------||x2
B|------------------------------------------------||
G|------------------------------------------------||
D|-9-9\5------------------------------------------||
A|-9-9\5------------------------------------------||
D|-9-9\5------------------------------------------||

Guitar2

D|------------------14-14-12-12-12-12-10-10---------10-10---------||
B|12-12-12-12-12-12-------------------------8-8-8-8-------14-14---||
G|----------------------------------------------------------------||
D|----------------------------------------------------------------||
A|----------------------------------------------------------------||
D|----------------------------------------------------------------||


D|------------------14-14-12-12\10-10---------10-10---------------||
B|12-12-12-12-12-12-------------------8-8-8-8-------14-14---------||
G|----------------------------------------------------------------||
D|----------------------------------------------------------------||
A|----------------------------------------------------------------||
D|----------------------------------------------------------------||

well there you have it. i hope i can figure out the ending soon.
if you have any questions,
comments or corrections email me at FromFirstToLast795@hotmail.com

============================================================================
Comments