From First To Last - Note To Self Chords & Tabs

 

Note To Self Chords & Tabs

From First To Last Chords & Tabs

Version: 4 Type: Tab 0 ratings
1 star 2 stars 3 stars 4 stars 5 stars
comments

Note To Self Tab

From First To Last
Note To Self 

Tabbed by: steve
Email: omghithere@hotmail.com
Tuned: Drop D

~ = Let it ring
. = Palm Mute
h = Hammer on
p = Pull-off
/ \ = Slide
* = Harmonics


00:00 - 00:16
|------------------------------------------------------| 4x
|------------------------------------------------------|
|------------------------------------------------------|
|--2-2-2-2-2--2222222222-(2x)-5-5-5-5-5--5-5-5-5-5-(2x)|
|--2-2-2-2-2--2222222222------3-3-3-3-3--3-3-3-3-3-----|
|--2-2-2-2-2--2222222222-------------------------------|
   . . . . .  ..........      . . . . .  . . . . . 

00:17 - 00:21
|--------------------------| 1x
|--------------------------|
|------7~------------------|
|----9--------9--------9---|
|--7--------7--------7-----|
|--------10--------7-------|

00:22 - 00:42
|-----------------------| 2x
|-----------------------|
|----------4------------|
|--2-------2-(32X)------|
|--2-(32X)-3------------|
|--2--------------------|

00:43 - 00:50
|----------------| 4x
|----------------|
|--444444-4-4-4--| 
|--222222-2-2-2--|
|--333333-3-3-3--|
|----------------|

00:51 - 1:06
|--------------------------------------------|  2x
|--------------------------------------------|
|--------------------------------------------|
|------------------22222-2-2-2-22222-2-2-2--|
|--2222222-3333333--22222-2-2-2-22222-2-2-2--|
|-------------------22222-2-2-2-22222-2-2-2--|
                    .....   .   .....   .

1:07 - 1:22
|------------------------------------------------------| 2x
|------------------------------------------------------|
|--1212121212-111111111111-----------------------------|
|--xxxxxxxxxx-xxxxxxxxxxxx--22222--2-2-2-22222--2-2-2--|
|--1010101010999999999999--22222--2-2-2-22222--2-2-2--|
|---------------------------22222--2-2-2-22222--2-2-2--|
                            .....    .   .....    .

1:23 - 1:31
|------|
|------|
|------|
|------|
|------|
|------|
[ Tab from: http://www.guitartabs.cc/tabs/f/from_first_to_last/note_to_self_tab_ver_4.html ]
1:32 - 1:47
|---------------------------------------------------------------| 2x
|-------------10---12---------------10---12---13--12--10---12---|
|--12---12---------------12---12--------------------------------|
|---------------------------------------------------------------|
|---------------------------------------------------------------|
|---------------------------------------------------------------|

1:48 - 2:08
|----------------------------------------------------|
|----------------------------------------------------|
|--1212121212121212--111111-1212121212121212--121212-|
|--xxxxxxxxxxxxxxxx--x-x-x--x-x-x-x-x-x-x-x---x-x-x--|
|--1010101010101010--9-9-9--1010101010101010--141414-|
|----------------------------------------------------|

|---------------------------------| 2x
|---------------------------------|
|-1212-1212-1212--------------(2x)| 
|-x-x--x-x--x-x--------12-10-9----|
|-1010-1010-1010-10-12------------|
|---------------------------------|

2:09 - 2:11
|-------------------|
|-------------------|
|-------------------|
|--44-55-44-22-454--|
|--44-55-44-22-454--|
|--44-55-44-22-454--|

2:12 - 2:32
|----------------------------------------------------|
|----------------------------------------------------|
|--1212121212121212--111111-1212121212121212--121212-|
|--xxxxxxxxxxxxxxxx--x-x-x--x-x-x-x-x-x-x-x---x-x-x--|
|--1010101010101010--9-9-9--1010101010101010--141414-|
|----------------------------------------------------|

|---------------------------------| 2x
|---------------------------------|
|-1212-1212-1212--------------(2x)| 
|-x-x--x-x--x-x--------12-10-9----|
|-1010-1010-1010-10-12------------|
|---------------------------------|



2:33 - 2:36
|--------------------------| 1x
|--------------------------|
|------7~------------------|
|----9--------9--------9---|
|--7--------7--------7-----|
|--------10--------7-------|

2:37 - 2:57
|-----------------------| 2x
|-----------------------|
|----------4------------|
|--2-------2-(32X)------|
|--2-(32X)-3------------|
|--2--------------------|

2:58 - 3:19
|----------------------------| 3x |----------------------------------|1x
|----------------------------|    |----------------------------------|
|-----------------------9~---|    |-----------------------9-9-9-9-9\-|
|--22222222-2~-22222222-x~---|    |--22222222-2~-22222222-x-x-x-x-x--|
|--22222222-2~-22222222-7~---|    |--22222222-2~-22222222-7-7-7-7-7\-|
|--22222222-2~-22222222------|    |--22222222-2~-22222222------------|
   ........    ........              ........    ........
Comments