From First To Last - Note To Self Chords & Tabs

 

Note To Self Chords & Tabs

From First To Last Chords & Tabs

Version: 1 Type: Tab 1 rating
1 star 2 stars 3 stars 4 stars 5 stars
comments

Note To Self Tab

Guitar One (lead)
  
(Intro)
e|----------2-----------3-----------2----------3-------------|
B|-----------------------------------------------------------|
G|-----------------------------------------------------------|
D|-----------------------------------------------------------|
A|--2---2-------2---2-------2---2-------2---2----------------|
D|-2---2-------2---2-------2---2-------2---2-----------------| 
      **    **            **    **            **    **            **    **

e|----------2-----------3-----------2----------3-------------|
B|-----------------------------------------------------------|
G|-----------------------------------------------------------|
D|--5---5-----5---5---------5---5-------5---5----------------|
A|-3---3-----3---3---------3---3-------3---3-----------------|
D|-----------------------------------------------------------| 2x
   **  **    **  **        **  **      **  **
  Guitar Two (rhythm)
  
e|-----------------------------------------------------------|
B|-----------------------------------------------------------|
G|-----------------------------------------------------------|
D|-22222--22222--22222--22222--55555--55555--55555--55555----|
A|-22222--22222--22222--22222--33333--33333--33333--33333----|
D|-22222--22222--22222--22222--------------------------------| 2x 
  

  Guitar One (Lead)
 (Break)
e|-----------------------------------------------------------|
B|-----------------------------------------------------------|
G|-------7~-------4~-------4~--------------------------------|
D|-----9~-------2~-------2~----------------------------------|
A|---7~-------3~-------0~------------------------------------|
D|-----------------------------------------------------------| 

  Guitar One & Two
  (Verse)

e|-----------------------------------------------------------|
B|-----------------------------------------------------------|
G|--------5-------------5------------------------------------|
D|-2------5------2------5------------------------------------|
A|-2-32x--3-32x--2-32x--3-32x--------------------------------|
D|-2-------------2-------------------------------------------| 2x

  Guitar One 
  (Break 2)
e|-----------------------------------------------------------|
B|-----------------------------------------------------------|
G|--55555-5-5-5----------------------------------------------|
D|--55555-5-5-5----------------------------------------------|
A|--33333-3-3-3----------------------------------------------|
D|-----------------------------------------------------------| 
[ Tab from: http://www.guitartabs.cc/tabs/f/from_first_to_last/note_to_self_tab.html ]
Guitar One
 (Verse 2)
e|-----------------------------------------------------------|
B|-----------------------------------------------------------|
G|-----------------------------------------------------------|
D|---------------222222-2-2-2--------------------------------|
A|-222222h33333--222222-2-2-2--------------------------------|
D|---------------222222-2-2-2--------------------------------| 4x
                          *    Let the last on played ring.

Guitar One
 (Break 3)
e|----------0--0---0--0---|----0--0--0--0--------------------|
B|---------8--8--10-12----|--13-12-10-12---------------------|
G|------------------------|----------------------------------|
D|------------------------|----------------------------------|
A|------------------------|----------------------------------|
D|------------------3x----|----------------------------------| 2x
                              Play On The Fourth One.

Guitar one & two
 (Verse 3)
e|-----------------------------------------------------------|
B|-----------------------------------------------------------|
G|-----------------------------------------------------------|
D|--12-12-12-12-12-12-12-\10-12-12-12-12-12-12-12-12/14------|
A|---x--x--x--x--x--x--x-x-x--x--x--x--x--x--x--x--x---------|
D|--10-10-10-10-10-10-10-\-8-10-10-10-10-10-10-10-10/12------| 

  Guitar one & Two
  (Verse 4)
e|-----------------------------------------------------------|
B|-----------------------------------------------------------|
G|-----------------------------------------------------------|
D|-55x55x55x5-0-00-55x55x55x5-0-00---------------------------|
A|-55x55x55x5-0-00-55x55x55x5-0-00---------------------------|
A|-55x55x55x5-0-00-55x55x55x5-0-00---------------------------| 4x

e|-----------------------------------------------------------|
B|-----------------------------------------------------------|
G|-------7~-------4~-------4~--------------------------------|
D|-----9~-------2~-------2~----------------------------------|
A|---7~-------3~-------0~------------------------------------|
D|-----------------------------------------------------------|

 
  Guitar One & Two
  (Verse)

e|-----------------------------------------------------------|
B|-----------------------------------------------------------|
G|--------5-------------5------------------------------------|
D|-2------5------2------5------------------------------------|
A|-2-32x--3-32x--2-32x--3-32x--------------------------------|
D|-2-------------2-------------------------------------------| 2x

  Guitar One & Two 
(Break 5)
  Guitar One & Two
  (Verse)

e|-----------------------------------------------------------|
B|-----------------------------------------------------------|
G|-----------------9~----------------------------------------|
D|-2-----0~--2-----x~----------------------------------------|
A|-2-16x-0~--2-16x-7~----------------------------------------|
D|-2-----0~--2-----------------------------------------------| 
*         *

get at ultimate-guitar.com
Comments