From First To Last - My Heart Your Hands Chords & Tabs

 

My Heart Your Hands Chords & Tabs

From First To Last Chords & Tabs

Version: 1 Type: Tab 0 ratings
1 star 2 stars 3 stars 4 stars 5 stars
comments

My Heart Your Hands Tab

From First To Last
My Heart, Your Hands
Dropped D Tuning
Credit: Sam Roberts & Jung Suh

Guitar 2 Intro
e|------------------------------------------------|
B|------------------------------------------------|
G|--10-10-10-10-10---------9-9-9-9-9--------------|
D|--8--8--8--8--8----------8-8-8-8-8--------------|  (x4)
A|--8--8--8--8--8----------8-8-8-8-8--------------|
D|--8--8--8--8--8----------8-8-8-8-8--------------|

Guitar 1 Intro 
(Comes In When Guitar 2 starts intro the 4th time)
e|------------------------------------------------|
B|------------------------------------------------|
G|------------------------------------------------|
D|-\-\-\-\-\-\-\----------------------------------|
A|-\-\-\-\-\-\-\----------------------------------|
D|-\-\-\-\-\-\-\----------------------------------|
Pick Scrape 

Guitar 2 Intro Cont.
e|--------------------------------------|--------------------------------|
B|--------------------------------------|--------------------------------|
G|--10-10-10-10-10-----9-9-9-9-9--------|-10-10-10-10-10---9-9-9-9-9-----|
D|--8--8--8--8--8------8-8-8-8-8(x2)---|-0--0--0--0--0----0-0-0-0-0-(x2)| (x2)
A|--8--8--8--8--8------8-8-8-8-8--------|-0--0--0--0--0----0-0-0-0-0-----|
D|--8--8--8--8--8------8-8-8-8-8--------|-0--0--0--0--0----0-0-0-0-0-----|

Guitar 1 Intro Cont.
e|--------------------------------------|--------------------------------|
B|--------------------------------------|--------------------------------|
G|-------------14-14-14-14-14-----------|------------7-7-7-7-7-----------|
D|-8-8-8-8-8----x--x--x--x--x----(x2)---|-0-0-0-0-0--x-x-x-x-x----(x2)---| (x2)
A|-8-8-8-8-8---12-12-12-12-12-----------|-0-0-0-0-0--5-5-5-5-5-----------|
D|-8-8-8-8-8----------------------------|-0-0-0-0-0----------------------|

Guitar 2 Verse 
e|-----------------------------------------------------|
B|-----------------------------------------------------|
G|-----------------------------------------------------|
D|-8--8-8-8-8--8--8-8-8-8--8--8-8-8-8--8--8-8-8-8------|
A|-8--8-8-8-8--8--8-8-8-8--8--8-8-8-8--8--8-8-8-8------|
D|-8--8-8-8-8--8--8-8-8-8--8--8-8-8-8--8--8-8-8-8------|
PM    - - - -     - - - -     - - - -     - - - -
								(x2)
e|-----------------------------------------------------|
B|-----------------------------------------------------|
G|-----------------------------------------------------|
D|-0--0-0-0-0--0--0-0-0-0--0--0-0-0-0--0--0-0-0-0------|
A|-0--0-0-0-0--0--0-0-0-0--0--0-0-0-0--0--0-0-0-0------|
D|-0--0-0-0-0--0--0-0-0-0--0--0-0-0-0--0--0-0-0-0------|
PM    - - - -     - - - -     - - - -     - - - -

Guitar 1 Verse
e|------------------------------------------------------------------|
B|------------------------------------------------------------------|
G|-5p0-7p0-(x8)------101010101010-999999-777777-5555555-(x4)--------|  (x2)
D|------------------------------------------------------------------|
A|------------------------------------------------------------------|
D|------------------------------------------------------------------|








Guitar 2 Chorus
e|-------------------------------------|---------------------|
B|-------------------------------------|---------------------|
G|-------------------------------------|---------------------|
D|--55555555---7---7h88888888----------|--000000000000000----|
A|--55555555---7--7h88888888----------|--000000000000000----|
D|--55555555---7---7h88888888----------|--000000000000000----|

e|-------------------------------------|---------------------|
B|-------------------------------------|---------------------|
G|-------------------------------------|---------------------|
D|--55555555---7---7h88888888----------|--0008\-----------|
A|--55555555---7---7h88888888----------|--0008\-----------|
D|--55555555---7---7h88888888----------|--0008\-----------|
PM                                        - - -

Guitar 1 Chorus
e|-------------------------------------|----------------------------------------------|
B|-------------------------------------|----------------------------------------------|
G|-------------------------------------|-1010101010101010-999999-777777-555555-(x4)---|
D|--55555555---7---7h88888888----------|----------------------------------------------|
A|--55555555---7--7h88888888----------|----------------------------------------------|
D|--55555555---7---7h88888888----------|----------------------------------------------|

e|-------------------------------------|---------------------|
B|-------------------------------------|---------------------|
G|-------------------------------------|---------------------|
D|--55555555---7---7h88888888----------|--0008\-----------|
A|--55555555---7---7h88888888----------|--0008\-----------|
D|--55555555---7---7h88888888----------|--0008\-----------|
PM                                        - - -

Guitar 1 and 2 Chorus Cont.
e|-----------------------------------------------------------|
B|----------------5---5---------------5555555555-------------|
G|----------------8---8---------------8888888888-------------|
D|--0000--0--000---------0000--0--000------------------------|
A|--0000--0--000---------0000--0--000------------------------|
D|--0000--0--000---------0000--0--000------------------------|
PM  ----     ---         ----     ---

Chorus 

Guitar 1 and 2 Chorus Cont.
e|-----------------------------------------------------|
B|----------------5---5---------------5---5------------|
G|----------------8---8---------------8---8------------|
D|--0000--0--000---------0000--0--000------------------|
A|--0000--0--000---------0000--0--000------------------|
D|--0000--0--000---------0000--0--000------------------|
PM  ----     ---         ----     ---

Guitar 2 Breakdown
e|------------------------------|
B|------------------------------|
G|------------------------------|
D|--8888888888--0000000000------|  (x4)
A|--8888888888--0000000000------|
D|--8888888888--0000000000------|
PM  ----------  ----------  
(The end of the 4th time let go of palm mute)
[ Tab from: http://www.guitartabs.cc/tabs/f/from_first_to_last/my_heart_your_hands_tab.html ]
Guitar 1 Breakdown (Clean)
(Comes In When Guitar 2 Comes In 3rd time)
e|--5555---5555----------|
B|--6666---5555----------|
G|--5555---5555----------|
D|-----------------------|  (x4)
A|-----------------------|
D|-----------------------|
Guitar 2 Pre-Chorus
e|--------------------------------------|--------------------------------|
B|--------------------------------------|--------------------------------|
G|--10-10-10-10-10-----9-9-9-9-9--------|-10-10-10-10-10---9-9-9-9-9-----|
D|--8--8--8--8--8------8-8-8-8-8(x2)---|-0--0--0--0--0----0-0-0-0-0-(x2)| (x2)
A|--8--8--8--8--8------8-8-8-8-8--------|-0--0--0--0--0----0-0-0-0-0-----|
D|--8--8--8--8--8------8-8-8-8-8--------|-0--0--0--0--0----0-0-0-0-0-----|

Guitar 1 Pre-Chorus
e|--------------------------------------|--------------------------------|
B|--------------------------------------|--------------------------------|
G|-------------14-14-14-14-14-----------|------------7-7-7-7-7-----------|
D|-8-8-8-8-8----x--x--x--x--x----(x2)---|-0-0-0-0-0--x-x-x-x-x----(x2)---| (x2)
A|-8-8-8-8-8---12-12-12-12-12-----------|-0-0-0-0-0--5-5-5-5-5-----------|
D|-8-8-8-8-8----------------------------|-0-0-0-0-0----------------------|

Guitar 2 Pre-Chorus Cont.
e|-----------------------------------|
B|-----------------------------------|
G|-----------------------------------|
D|-8888888888----0000000000----------| (x4)
A|-8888888888----0000000000----------|
D|-8888888888----0000000000----------|

Guitar 1 Pre-Chorus Cont.
e|----------------------------------------------------------------|
B|----------------------------------------------------------------|
G|--5p0-7p0-(x12)---101010101010109999997777777555555(x2)-----|
D|----------------------------------------------------------------| (x2)
A|----------------------------------------------------------------|
D|----------------------------------------------------------------|

Chorus 

Guitar 1 and 2 Chorus Cont.
e|-----------------------------------------------------------|
B|----------------5---5---------------5---5------------------|
G|----------------8---8---------------8---8------------------|
D|--0000--0--000---------0000--0--000------------------------|
A|--0000--0--000---------0000--0--000------------------------|
D|--0000--0--000---------0000--0--000------------------------|
PM  ----     ---         ----     ---

e|-----------------------------------------------------------|
B|----------------5---5---------------55555555555------------|
G|----------------8---8---------------88888888888------------|
D|--0000--0--000---------0000--0--000------------------------|
A|--0000--0--000---------0000--0--000------------------------|
D|--0000--0--000---------0000--0--000------------------------|
PM  ----     ---         ----     ---

Chorus(Skip Second Part Of Chorus) 

Guitar 2 Breakdown 2
e|-----------------------------------------------------------|
B|-----------------------------------------------------------|
G|-----------------------------------------------------------|
D|--000---888---000---888---000------------------------------|
A|--000---888---000---888---000------------------------------|
D|--000---888---000---888---000------------------------------|
PM  ---   ---   ---   ---   ---   

Guitar 1 Breakdown 2   (Clean)
e|---5555---5555---5555---5555----------------|
B|---6666---5555---6666---8888----------------|
G|---5555---5555---5555---5555----------------|
D|--------------------------------------------|  (x4)
A|--------------------------------------------|
D|--------------------------------------------|


Guitar 2 Breakdown 2 Cont.
e|---------------------------------------------------|
B|---------------------------------------------------|
G|---------------------------------------------------|
D|---8~---0~---8~---0~---8~---0~---8~---0~-----------|
A|---8~---0~---8~---0~---8~---0~---8~---0~-----------|
D|---8~---0~---8~---0~---8~---0~---8~---0~-----------|

Guitar 1 Breakdown 2 Cont.   (Clean)
e|----5---5---5---5---8---8---8---8---8----------8-8-8-8-8-8-8-8-8-8-8-8-8----|
B|---6-6-6-6-6-6-6-6-6-6-6-6-6-6-6-6-6-6--(x4)--6-6-6-6-6-6-6-6-6-6-6-6-6-----|
G|--5---5---5---5---5---5---5---5---5-----------------------------------------|
D|----------------------------------------------------------------------------|
A|----------------------------------------------------------------------------|
D|----------------------------------------------------------------------------|

Guitar 2 Outro
e|-----------------------------------|----------------------|
B|-----------------------------------|----------------------|
G|-----------------------------------|----------------------|
D|---8888888---12121212121212(x2)---|---0000000------------| (x4)
A|---8888888---12121212121212--------|---0000000------------|
D|---8888888---12121212121212--------|---0000000------------|

Guitar 1 Outro
e|-----------------------------------|----------------------|
B|-----------------------------------|----------------------|
G|-------------14141414141414--------|----------------------|
D|---8888888----x-x-x-x-x-x-x(x2)---|---0000000------------| (x4)
A|---8888888---12121212121212--------|---0000000------------|
D|---8888888-------------------------|---0000000------------|

Guitar 2 Outro Cont.
e|---------------------------------------------------|
B|---------------------------------------------------|
G|---------------------------------------------------|
D|---888888888---12121212---000000000----------------| (x2)
A|---888888888---12121212---000000000----------------|
D|---888888888---12121212---000000000----------------|

Guitar 1 Outro Cont.
e|---------------------------------------------------|
B|---------------------------------------------------|
G|--171717171717--21212121--2222222222---------------|
D|---x-x-x-x-x-x---x-x-x-x---x-x-x-x-x---------------| (x2)
A|--151515151515--19191919--2020202020---------------|
D|---------------------------------------------------|

Guitar 2 Outro Cont.
e|-------------------------------------------------------|
B|-------------------------------------------------------|
G|-------------------------------------------------------|
D|---888-888-888-888--12---000-000-000-000---------------| (x2)
A|---888-888-888-888--12---000-000-000-000---------------|
D|---888-888-888-888--12---000-000-000-000---------------|

Guitar 1 Outro Cont.
e|-----------------------------------------------------------------------------|
B|-----------------------------------------------------------------------------|
G|--171717-171717-171717-171717---21---222222-222222-222222-222222-------------|
D|---x-x-x--x-x-x-x-x-x-x-x-x----x----x-x-x--x-x-x--x-x-x--x-x-x-------------| (x2)
A|--151515-151515-151515-151515---19--202020-202020-202020-202020-------------|
D|-----------------------------------------------------------------------------|
Comments