From First To Last - Mothersound Chords & Tabs

 

Mothersound Chords & Tabs

From First To Last Chords & Tabs

Version: 1 Type: Bass Tab

Mothersound Bass Tab

Tuning: Drop D

* = Palm-mute
/ = Slide to whatever
x = Mute. Just stop on that note.

Intro (enter at 0:39)

-------------------------------------------------------------------------|
-------------------------------------------------------------------------|
-------------------------------------------------------------------------|
-7-7-7-7-77--6-6-6-6-66-/-10-10-10---------------------------------------|

Chorus

-------------------------------------------------------------------------|
-------------------------------------------------------------------------|
-------------------------------------------------------------------------|
-77777777-66666666-33333333-22222222-00000000-22222222-33333333-66666666-|

Pre-Chorus (2 times)

-------------------------------------------------------------------------|
-------------------------------------------------------------------------|
-------------------------------------------------------------------------|
-07-77777777--07-77777777--07-77777777666633333--------------------------|

After second time end with

------|
------|
------|
-2x---

Chorus

Bridge

-------------------------------------------------------------------------|
-------------------------------------------------------------------------|
-------------------------------------------------------------------------|
-0000000000000000-33333--0000000000000000-3333---------------------------|

2nd Part of Bridge, Do this twice.
[ Tab from: http://www.guitartabs.cc/tabs/f/from_first_to_last/mothersound_btab.html ]
-------------------------------------------------------------------------|
-------------------------------------------------------------------------|
-------------------------------------------------------------------------|
-77x--66x--/--10-10x--66x------------------------------------------------|

-------------------------------------------------------------------------|
-------------------------------------------------------------------------|
-------------------------------------------------------------------------|
-7~-----6~-----10~-----6~------------------------------------------------|

Those are 10ís, so are the next columnís.
------------------------------------------------------------------------------|
------------------------------------------------------------------------------|
------------------------------------------------------------------------------|
-777-77-7-77-777--666-66-6-66-666--333-33-3-33-333-101010-1010-10-1010-101010-|


-------------------------------------------------------------------------|
-------------------------------------------------------------------------|
-------------------------------------------------------------------------|
-77777777-9999-10101010--77777777-9999-10101010--------------------------|

Chorus

Chorus picking variation (play the same thing but with an alternate picking method)


Outro

--------------------------------------|
--------------------------------------| DO THIS PART 4 TIMES
--------------------------------------|
-777x--666x--777x--666x---000-000-00--|

----------------------------------------|
----------------------------------------|
----------------------------------------|
-777x-777-777--666-777-666-000-000-000x-|
      *** ***