From First To Last - Levy Chords & Tabs

 

Levy Chords & Tabs

From First To Last Chords & Tabs

Version: 2 Type: Tab

Levy Tab

   
heres a song of from first to lasts new album heroine... no one had any full tabs of 
up so i decided to go try myself. this is mt first tab of a full song. its kinda hard to 
the guitars in some parts especially when its mixed and muffled with all the weird noises...

(0:10-21)
Intro (Guitar 1)-         (Guitar 2)
d---------------------    d----------|
A---------------------    A----------|
F---------------------    F----------|
C--0-0-0-0-0-------0-0 x4 C----------|
G--0-0-0-0-0-------0-0    G-------8p7|
C--0-0-0-0-0h1p0h1-0-0    C--0h7h8---|
pm . . . .         . .
______________________________________
(0:22-0:31)

(Guitar 1)
d--------------------------------|
A--------------------------------|
F--------------------------------|
C-0-0-0-0-0-------0-0-0-0-0-0-0-0|x4
G-0-0-0-0-0-------0-0-0-0-0-0-0-0|
C-0-0-0-0-0h1p0h1-0-0-0-0-0-0-0-0|

(Guitar 2)
d-------------------------------------------------|
A--15-15-15-15-15-15------------------------------|
F--------------------12-12-13-13-13-13-13-13-12-12|x4
C-------------------------------------------------|
G-------------------------------------------------|
C-------------------------------------------------|

(Guitar 3)
d----------------------------------|
A----------------------------------|
F--7-7-7-7-7-7-7-7-----------------|
C--7-7-7-7-7-7-7-7-8-8-8-8-8-8-8-8-|x4
G--5-5-5-5-5-5-5-5-8-8-8-8-8-8-8-8-|
C------------------8-8-8-8-8-8-8-8-|
_______________________________________________________
(0:32-0:40)

(Guitar 1)
d--------------------------------------------------|
A--------------------------------------------------|
F--7-----10----------------------------------------|
C--7-x16----x8-7----------------8-8-8-7-7-7--------|
G--5------8----7-x8--------------------------------|
C--------------7----8-8-8-7-7-7-------------8-8-7-7|

(Guitar 2)
d---------------------------------------------------|
A--15-----19----------------------------------------|
F----x16---x8---14----------------------------------|
C--12-----15-----x8--------------8-8-8-7-7-7--------|
G---------------12---------------------------8-8-7-7|
C--------------------8-8-8-7-7-7-------------8-8-7-7|
_____________________________________________________
(0:41-1:01)

(Guitar 1)
d------------------------|   d----------------------|
A------------------------|   A----------------------|
F--7---------------------|   F--7-------------------|
C--7-x16-8----7----0-----|x2 C--7-x8-8----7----0----|x2
G--5-----8-x6-7-x2-0-x8--|   G--5----8-x8-7-x8-0-x8-|
C--------8----7----0-----|   C-------8----7----0----|

(Guitar 2)
d---------------------------|   d-------------------------|
A---------------------------|   A-------------------------|
F--7----------------10--9---|x2 F--7--------------10---9--|
C--7-x16-8----7------x4---x4|   C--7-x8-8-----------x4--x4|x2
G--5-----8-x6-7-x2--8---7---|   G--5----8-x8-7-x8--8---7--|
C--------8----7-------------|   C-------8----7------------|
_________________________________
(1:33-1:54)

(Guitar 1)
d------------------------|   d----------------------|
A------------------------|   A----------------------|
F--7---------------------|   F--7-------------------|
C--7-x16-8----7----0-----|x2 C--7-x8-8----7----0----|x2
G--5-----8-x6-7-x2-0-x8--|   G--5----8-x8-7-x8-0-x8-|
C--------8----7----0-----|   C-------8----7----0----|
[ Tab from: http://www.guitartabs.cc/tabs/f/from_first_to_last/levy_tab_ver_2.html ]
(Guitar 2)
d---------------------------|   d-------------------------|
A---------------------------|   A-------------------------|
F--7----------------10--9---|x2 F--7--------------10---9--|
C--7-x16-8----7------x4---x4|   C--7-x8-8-----------x4--x4|x2
G--5-----8-x6-7-x2--8---7---|   G--5----8-x8-7-x8--8---7--|
C--------8----7-------------|   C-------8----7------------|
_________________________________
(1:55-2:15)

This is as much as i did until it got too boring, so ill try and finish it later
(Guitar 2)
d--22-20-18-17-18-17-17~18-17-14-13-14-10-13(...---|
A--------------------------------------------------|
F--------------------------------------------------|
C--------------------------------------------------|
G--------------------------------------------------|
C--------------------------------------------------|
_________________________________________________________________________
(2:16-2:23)

(Guitar 1)
d--------------------------------------------------|
A--------------------------------------------------|
F--7-----10----------------------------------------|
C--7-x16----x8-7----------------8-8-8-7-7-7--------|
G--5------8----7-x8--------------------------------|
C--------------7----8-8-8-7-7-7-------------8-8-7-7|

(Guitar 2)
d---------------------------------------------------|
A--15-----19----------------------------------------|
F----x16---x8---14----------------------------------|
C--12-----15-----x8--------------8-8-8-7-7-7--------|
G---------------12---------------------------8-8-7-7|
C--------------------8-8-8-7-7-7-------------8-8-7-7|
______________________________________________________
(2:24-2:44)

(Guitar 1)
d------------------------|   d----------------------|
A------------------------|   A----------------------|
F--7---------------------|   F--7-------------------|
C--7-x16-8----7----0-----|x2 C--7-x8-8----7----0----|x2
G--5-----8-x6-7-x2-0-x8--|   G--5----8-x8-7-x8-0-x8-|
C--------8----7----0-----|   C-------8----7----0----|

(Guitar 2)
d---------------------------|   d-------------------------|
A---------------------------|   A-------------------------|
F--7----------------10--9---|x2 F--7--------------10---9--|
C--7-x16-8----7------x4---x4|   C--7-x8-8-----------x4--x4|x2
G--5-----8-x6-7-x2--8---7---|   G--5----8-x8-7-x8--8---7--|
C--------8----7-------------|   C-------8----7------------|

(Guitar 3)
d--22-20-18-17-18-17-17~18-17-14-13-14-10-13(...---|
A--------------------------------------------------|
F--------------------------------------------------|
C--------------------------------------------------|
G--------------------------------------------------|
C--------------------------------------------------|
___________________________________
(2:45-2:55)

(Guitar 1)
d----------------------|
A----------------------|
F------------7---------|
C--8----7----7-x8-0----|x2
G--8-x8-7-x8-5----0-x8-|
C--8----7---------0----|

(Guitar 2)
d----------------------|
A----------------------|
F------------7---------|
C--8----7----7-x8-0----|x2
G--8-x8-7-x8-5----0-x8-|
C--8----7---------0----|
_________________________
(2:56-3:38)

(Guitar 1)
d------------------------------|
A------------------------------|
F------------------------------|
C--0-0-0-0-0-------0-0---------| x16
G--0-0-0-0-0-------0-0------8p7|
C--0-0-0-0-0h1p0h1-0-0-0h7h8---|
pm . . . .         . .

{3:07-3:38}
(Guitar 2-playing piano part-come in after guitar 1 has played that riff x4)
d----------------------------------|
A----------------------------------|
F----------------------------------|
C--0-3-0-3-2-5-2-7-5-8-7---10---10~|x3
G------------------------8----8----|
C----------------------------------|