From First To Last - Kiss Me Im Contagious Chords & Tabs

 

Kiss Me Im Contagious Chords & Tabs

From First To Last Chords & Tabs

Version: 1 Type: Tab 0 ratings
1 star 2 stars 3 stars 4 stars 5 stars
comments

Kiss Me Im Contagious Tab

   
Kiss Me I'm Contagious, by From First To Last
Off the album "Dear Diary, My Teen Angst Has a Body Count"

{-------------------------*RE-TABBED FOR ACCURACY!*------------------------}

- Dropped D tuning

- Although written and played with two guitars, this tab is arranged so that it can
be played on one guitar, with the exception of the breakdown in Verse 2.

- Feel free to send comments/corrections to Mathamology@hotmail.com

Key:

|:| *    - natural harmonic
|:| /'n' - slide to fret 'n'
|:| x    - mute string
|:| h    - hammer on
|:| p    - pull off
|:| .    - palm mute

---------------------------------|---------|--------------------------------|
---------------------------------|-Verse 1-|--------------------------------|
---------------------------------|---------|--------------------------------|

e|:|-------------------------|--|
B|:|-------------------------|--|
G|:|-------------------------|--|
D|:|-333-xxx-xxx-xxx-777-222-|--|
A|:|-333-xxx-xxx-xxx-777-222-|x2|
D|:|-333-xxx-xxx-xxx-777-222-|--|

    "....I break hearts like the west...


e|:|--------------------------------------|--|
B|:|--------------------------------------|--|
G|:|--------------------------------------|--|
D|:|-333-7-7-7-5-3-2-2-2-2-2-2/3--777-222-|--|
A|:|-333-8-8-8-7-5-3-3-3-3-3-3/5--777-222-|x2|
D|:|-333--------------------------777-222-|--|

    "...play poker all day at the saloon..."


---------------------------------|----------|-------------------------------|
---------------------------------|- Chorus -|-------------------------------|
---------------------------------|----------|-------------------------------|

e|:|-----------------------------|--|
B|:|-1010101010/-----------------|--|
G|:|-1010101010/-----------------|--|
D|:|-7-7-7-7-7-/-3-2-2/7-7/3-2-0-|--|
A|:|-8-8-8-8-8-/-3-2-2/7-7/3-2-0-|x4|
D|:|-------------3-2-2/7-7/3-2-0-|--|

    "...We won't back down....

**|:| Guitar is silent during the first "We draw to death"|:|**

e|:|-----------------|--|
B|:|-----------------|--|
G|:|-----------------|--|
D|:|-3-2-2/7-7/3-2-0-|--|
A|:|-3-2-2/7-7/3-2-0-|x3|
D|:|-3-2-2/7-7/3-2-0-|--|

    "...We draw to death"

--------------------------------|-----------|-------------------------------|
--------------------------------|-Pre Verse-|-------------------------------|
--------------------------------|-----------|-------------------------------|

e|:|------------||
B|:|------------||
G|:|---------5*-||
D|:|--00-00--5*-||
A|:|--00-00-----||
D|:|--00-00-----||
      .. ..

---------------------------------|---------|--------------------------------|
---------------------------------|-Verse 2-|--------------------------------|
---------------------------------|---------|--------------------------------|
[ Tab from: http://www.guitartabs.cc/tabs/f/from_first_to_last/kiss_me_im_contagious_tab.html ]
e|:|----------------------------|--|
B|:|----------------------------|--|
G|:|--------------------88------|--|
D|:|-888888888888-00-22-xx-7777-|--|
A|:|-888888888888-00-22-66-7777-|x4|
D|:|-888888888888-00-22----7777-|--|

    "There was a man from way back west...

|	e|:|---------------------12-13p12h13p12h13-|--|
|	B|:|-13p10-11p10h11p10~--------------------|--|
|	G|:|---------------------------------------|--|
|	D|:|---------------------------------------|--|
|	A|:|---------------------------------------|x8|
|	D|:|---------------------------------------|--|
|        | |
|	e|:|--------------/---------------|--|
|	B|:|--------------/---------------|--|
|	G|:|--------------/---------------|--|
|	D|:|-333333333333-/-777777-222222-|--|
|	A|:|-333333333333-/-777777-222222-|x4|
|	D|:|-333333333333-/-777777-222222-|--|

e|:|-------------------------|--|
B|:|-------------------------|--|
G|:|-------------------------|--|
D|:|-333-xxx-xxx-xxx-777-222-|--|
A|:|-333-xxx-xxx-xxx-777-222-|x2|
D|:|-333-xxx-xxx-xxx-777-222-|--|


    "I bite it but I don't light it...


e|:|--------------------------------------|--|
B|:|--------------------------------------|--|
G|:|--------------------------------------|--|
D|:|-333-7-7-7-5-3-2-2-2-2-2-2/3--777-222-|--|
A|:|-333-8-8-8-7-5-3-3-3-3-3-3/5--777-222-|x2|
D|:|-333--------------------------777-222-|--|

    "...two barrels and a whole lot of bang..."

---------------------------------|----------|-------------------------------|
---------------------------------|- Chorus -|-------------------------------|
---------------------------------|----------|-------------------------------|

e|:|-----------------------------|--|
B|:|-1010101010/-----------------|--|
G|:|-1010101010/-----------------|--|
D|:|-7-7-7-7-7-/-3-2-2/7-7/3-2-0-|--|
A|:|-8-8-8-8-8-/-3-2-2/7-7/3-2-0-|x4|
D|:|-------------3-2-2/7-7/3-2-0-|--|

    "...We won't back down....

**|:| Guitar is silent during the first "We draw to death"|:|**

e|:|-----------------|--|
B|:|-----------------|--|
G|:|-----------------|--|
D|:|-3-2-2/7-7/3-2-0-|--|
A|:|-3-2-2/7-7/3-2-0-|x3|
D|:|-3-2-2/7-7/3-2-0-|--|

    "...We draw to death"

---------------------------------|---------|--------------------------------|
---------------------------------|- Outro -|--------------------------------|
---------------------------------|---------|--------------------------------|

e|:|---------------------------|--|
B|:|---------------------------|--|
G|:|---------7-----------------|--|
D|:|-00000-000-3-2-2/7-7/3-2-0-|--|
A|:|-00000-000-3-2-2/7-7/3-2-0-|x4|
D|:|-00000-000-3-2-2/7-7/3-2-0-|--|
     ....  ..

    "Can I touch your leg...


e|:|---------------------------|--|
B|:|-6-6--5-------------xxxxxx-|--|
G|:|---------5--5-5-7-7-xxxxxx-|--|
D|:|--------------------xxxxxx-|--|
A|:|--------------------xxxxxx-|x4|
D|:|---------------------------|--|

    "Can I touch your leg...


e|:|--------|--|
B|:|-xxxxxx-|--|
G|:|-xxxxxx-|--|
D|:|-xxxxxx-|--|
A|:|-xxxxxx-|x4|
D|:|--------|--|


END
Comments