From First To Last - Featuring Some Of Your Favorite Words Chords & Tabs

 

Featuring Some Of Your Favorite Words Chords & Tabs

From First To Last Chords & Tabs

Version: 1 Type: Tab 0 ratings
1 star 2 stars 3 stars 4 stars 5 stars
comments

Featuring Some Of Your Favorite Words Tab

okay...........
GUITAR 1 (INTRO)
|---------------------------------------------------------------------------|
|---------------------------------------------------------------------------|
|---------------------------------------------------------------------------|
|--00-00-00-00-0-0--88-88-88-88-8-8--9-9--9-9--9-9--9-9--9-9-9---5-555555---|
|--00-00-00-00-0-0--88-88-88-88-8-8--1111-1111-1111-1111-111111--5-555555---|
|--00-00-00-00-0-0--88-88-88-88-8-8--9-9--9-9--9-9--9-9--9-9-9---5-555555---|
PM                                                       . . .     ......
-----------------|
-----------------|   x4
-----------------|
-7p5-------------|
-----8p5-7h8-8---|
-----------------|
GUITAR 2 (INTRO)
|--55-55-55-55-5-5--55-55-55-55-5-5--10-8-5-6-5h6p5--------------------------|
|--55-55-55-55-5-5--66-66-66-66-6-6-----------------6------------------------|
|--77-77-77-77-7-7--77-77-77-55-5-5------------------------------------------|
|--77-77-77-77-7-7--88-88-88-88-8-8-------------------5-555555-7p5-----------|
|-----------------------------------------------------5-555555-----8p5-7h8-8-|
|-----------------------------------------------------5-555555---------------|
repeat that 4 times^^^^^^^^^^^^^^^^^^^^^^^^^^^^^^^^^^^^^^^^^^^^^^^^^^^^^^^^^
BOTH GUITARS(VERSE)
"THIS DUUSTYY BOOK......."
|----------------------------------------------------------------------------|
|----------------------------------------------------------------------------|
|----------------------------------------------------------------------------|
|--7-7-777-8-88-7-777-7-7-777-8-88-7-777-------------------------------------|
|--0-0-000-0-00-0-000-5-5-555-5-55-5-555---10---10-8-888888---8--8-5-5555555-|
|--0-0-000-0-00-0-000-5-5-555-5-55-5-555-88--88---8---------55-55-5----------|
next little part thingy
GUITAR 1
|-------------------------------------------------------------------------|
|-------------------------------------------------------------------------|
|-------------------------------------------------------------------------|
|--------------------------------------8--8-7-777777----------------------|
|----10--10-8-888888---8--8-5-555555-55-55-5-----------10--10-8-888888----|
|--88--88--8---------55-55-5-------------------------88--88--8------------|
GUITAR 2
|-----------------------------------------------------------------------|
|-----------------------------------------------------------------------|
|-----------------------------------------------------------------------|
|----8--8-7-777777---5--5-3-333333--------------------------------------|
|------------------------------------10--10-8-888888---8--8-5-555555----|
|--88-88-8---------55-55-5---------88--88--8---------55-55-5------------|
thennnnnn
GUITAR 1
|-----------|
|-----------|
|-----------|
|--8--------|
|--8-(x32)--|or justt count two counts of 4 (1and2and3and4and...)
|--8--------|
GUITAR 2 i'm not sure is this is totally right but it sounds 99.99% correct
|----------------------------------------------------------------------------|
|--------------------------------------------------------------------101010~-|
|--10h12-1212-10p0-9p0-10p0-9p0-7p0-9p0-10h12-1212-10p0-9p0-7h10-7h9---------|
|----------------------------------------------------------------------------|
|----------------------------------------------------------------------------|
|----------------------------------------------------------------------------|


then do the intro


and then the verse


and then the other little thingy

and then it does this
BOTH GUITARS
|-----------------------------|
|-----------------------------|  x4
|---------------------7b8r7---|
|-------------------7---------|
|-----10--10/12---------------|
|--8-------------5------------|
Guitar 1 does that twice then the last two times it does this
|-------------------------------|
|-------------------------------|
|-----------------------7*b8r7--|
|---------------------7---------|
|-----10*--10*/12---------------|
|--8---------------5------------|
then both guitars do this
|------------------------------------------------------|
|------------------------------------------------------|   x4
|----------------------------------77777--77777--------|
|--8-8-8-8-8---8-8-8-8-8---8-/10---55555--55555-8-7-5--|
|--1010101010--1010101010--10/12---55555--55555--------|
|--8-8-8-8-8---8-8-8-8-8---8-/10---55555--55555--------|
then while the other guitar is still douing ^that^ this guitar does.......
.......this
|--------------------------------------|     |--------13---|
|-------------------8--8-10-8-10-11-11-|   x4|--10-11------|   x4
|--5-7-8-7-8-10-8-10-10----------------|     |-------------|
|--------------------------------------|     |-------------|
|--------------------------------------|     |-------------|
|--------------------------------------|     |-------------|
^^^^^^^^^^^^^^^^do that whole thing twice^^^^^^^^^^^^^^^^^^^^^^^^^
you'll figure it out

that's all.....any problems email me at thricefan776@yahoo.com
[ Tab from: http://www.guitartabs.cc/tabs/f/from_first_to_last/featuring_some_of_your_favorite_words_tab.html ]
Comments