From First To Last - Failure By Designer Jeans Chords & Tabs

 

Failure By Designer Jeans Chords & Tabs

From First To Last Chords & Tabs

Version: 1 Type: Tab

Failure By Designer Jeans Tab

Drop C tuning

Intro
gtr 1
|------------------------------------------------------|
|------------------------------------------------------|
|------------------------------------------------------|
|4-4-4-4--4--4--4-4-4--4-4-4-0-0-0-0--0--0-0-0-0--0-0-0|
|4-4-4-4--4--4--4-4-4--4-4-4-0-0-0-0--0--0-0-0-0--0-0-0|
|4-4-4-4--4--4--4-4-4--4-4-4-0-0-0-0--0--0-0-0-0--0-0-0|

gtr 2

|-----------------------|      |----------------|
|-----------------------|      |----------------|
|-----------------------|      |---8------8----8|
|5-6-5-6--6-5-6-5-5-6-5-| then |5-6----5-6--5-6-|x1 
|-----6----------6-----6|      |----------------|
|-----------------------|      |----------------|
then 2nd time it does that it changes to this
[ Tab from: http://www.guitartabs.cc/tabs/f/from_first_to_last/failure_by_designer_jeans_tab.html ]
|---------------------------------|
|---------------------------------|
|---8------8----8----5------5----5|
|5-6----5-6--5-6--5-6----5-6--5-6-|
|---------------------------------|
|---------------------------------|

Verse
|--------------|
|--------------|
|--------------|
|4--------4-4-4|
|4--------4-4-4|
|4--------4-4-4|
pm        . .

Chorus
|------------------------------------------|
|------------------------------------------|
|------------------------------------------|
|44444777777222222-2-2-2-200000000000222222|
|44444777777222222-2-2-2-200000000000222222|
|44444777777222222-2-2-2-200000000000222222|

ending

is just useing these chords
|----|
|----|
|----|
|4--0|
|4--0|
|4--0| and do the pattern the way they do it