From First To Last - Emily Chords & Tabs

 

Emily Chords & Tabs

From First To Last Chords & Tabs

Version: 6 Type: Tab 0 ratings
1 star 2 stars 3 stars 4 stars 5 stars
comments

Emily Tab

-------------------------------------------------------------------------------
			     Emily  From First to Last
-------------------------------------------------------------------------------
Tabbed by: Timothy A.
Email:Neversummer1237@aol.com

Tuning: Standard
Intro
Guitar 1
e|---------------------------------------------------------------------------|
B|---------0-------------0------------0-------------0------[12]--------------|
G|-----0-----0-------0-----0------2-----2------0------0--------[12]----------|
D|---------------2-2---2------0-0---0----------------------------------------|
A|-3-3---3---------------------------------3-3---3---------------------------|
E|---------------------------------------------------------------------------|
Guitar 2
e|---------------------------------------------------------------------------|
B|---------0------------0-------------0-------------0------------------------|
G|-----0-----0------0-----0-------0-----0------0------0----------------------|
D|--------------2-2---2------------------------------------------------------|
A|-3-3---3--------------------5-5---5------3-3---3---------------------------|
E|---------------------------------------------------------------------------|

Guitar 1
e|---------------------------------------------------------------------------|
B|----------0----------------------------------------------------------------|
G|------0-----0----------7-5-4h5p4-------------------------------------------|
D|--2-2---2----------7------------------7-----7------7/9-7-------------------|
A|---------------5-5---5------------4h5---4h5----4h5-------------------------|
E|---------------------------------------------------------------------------|
Guitar 2
e|---------------------------------------------------------------------------|
B|---------0-------------0--------------------0------------------------------|
G|-----0-----0-------0-----0--------------0------0---------------------------|
D|---------------------------------------------------------------------------|
A|-7-7---7-------5-5---5-------------3--3----3-------------------------------|
E|---------------------------------------------------------------------------|

Guitar 1
e|---------------------------------------------------------------------------|
B|---------------------------------------------------------------------------|
G|--5-4-0-7-5-4-5-4---4--------------7-----7-------7/9-7---------------------|
D|------------------7---7--------4h5---4h5----4h5----------------------------|
A|---------------------------------------------------------------------------|
E|---------------------------------------------------------------------------|
Guitar 2
e|---------------------------------------------------------------------------|
B|---------0---------------0-------------0-----------------------------------|
G|------0------0-------0-----0-------0-----0---------------------------------|
D|---------------------------------------------------------------------------|
A|-7-7----7---------5-5--5-------3-3---3-------------------------------------|
E|---------------------------------------------------------------------------|

Guitar 1
e|---------------------------------------------------------------------------|
B|---------------------------------------------------------------------------|
G|-12-12-12-11-11-12-12-14-14-14-12-12-12-11-11------------------------------|
D|---------------------------------------------------------------------------|
A|---------------------------------------------------------------------------|
E|---------------------------------------------------------------------------|
Guitar 2
e|---------------------------------------------------------------------------|
B|------------0--------------------0-----------------------------------------|
G|-------0-------0-------------0-----0---------------------------------------|
D|---------------------------------------------------------------------------|
A|-7--7----7-------------5--5----5-------------------------------------------|
E|---------------------------------------------------------------------------|

[ Tab from: http://www.guitartabs.cc/tabs/f/from_first_to_last/emily_tab_ver_6.html ]
Verse 
Guitar 1								
e|---------------------------------------------------------------------------|
B|----------0--------------0---------------0---------------------------------|
G|------0-----0-------0------0--------0------0--------------7--54h5p4-------|x4
D|--------------------------------2-2---2-------------7----------------------|
A|--3-3---3------3-3---3------------------------5--5-----5-------------------|
E|---------------------------------------------------------------------------|
Guitar 2
e|---------------------------------------------------------------------------|
B|--0-0-0--0-0-0------0-0-0------0-0-0--0-0-0----0-0----0--0--0--0-----------|
G|--0-0-0--0-0-0------0-0-0------0-0-0--0-0-0----0-0----0--0--0--0-----------|x4
D|--5-5-5--5-5-5------5-5-5------9-9-9--9-9-7----7-7----7--7--7--7-----------|
A|--3-3-3--3-3-3------3-3-3------7-7-7--7-7-5----5-5----5--5--5--5-----------|
E|---------------------------------------------------------------------------|
 
Chorus
Guitar 1&2
e|---------------------------------------------------------------------------|
B|---------------------------------------------------------------------------|
G|---------------------------------------------------------------------------|x2
D|-9--9-7--7-12-12-12-12-12-12-12-12--9-9-7-7-5-5-5-5-5-5-5------------------|
A|-7--7-5--5-10-10-10-10-10-10-10-10--7-7-5-5-3-3-3-3-3-3-3------------------|
E|---------------------------------------------------------------------------|
Guitars 1&2

e|---------------------------------------------------------------------------|
B|---------------------------------------------------------------------------|
G|---------------------------------------------------------------------------|
D|-9-9-7-7--5-5-5-5-5-5-5-5--7-7-7-7-7---------------------------------------|
A|-7-7-5-5--3-3-3-3-3-3-3-3--5-5-5-5-5---------------------------------------|
E|---------------------------------------------------------------------------|

Pre verse
Guitar 1
e|---------------------------------------------------------------------------|
B|---------0-------------0------------0-------------0------[12]--------------|
G|-----0-----0-------0-----0------2-----2------0------0--------[12]----------|
D|---------------2-2---2------0-0---0----------------------------------------|
A|-3-3---3---------------------------------3-3---3---------------------------|
E|---------------------------------------------------------------------------|
Guitar 2
e|---------------------------------------------------------------------------|
B|---------0------------0-------------0-------------0------------------------|
G|-----0-----0------0-----0-------0-----0------0------0----------------------|
D|--------------2-2---2------------------------------------------------------|
A|-3-3---3--------------------5-5---5------3-3---3---------------------------|
E|---------------------------------------------------------------------------|

Guitar 1
e|---------------------------------------------------------------------------|
B|----------0-----------7-5-4h5p4--------------------------------------------|
G|------0-----0-----7--------------------------------------------------------|
D|--2-2---2-----5-5---5------------------------------------------------------|
A|---------------------------------------------------------------------------|
E|---------------------------------------------------------------------------|
Guitar 2
e|---------------------------------------------------------------------------|
B|--------0------------0-----------------------------------------------------|
G|-----0----0------0-----0---------------------------------------------------|
D|---------------------------------------------------------------------------|
A|-7-7--7------5-5---5-------------------------------------------------------|
E|---------------------------------------------------------------------------|

Verse 
Guitar 1								
e|---------------------------------------------------------------------------|
B|----------0--------------0---------------0---------------------------------|
G|------0-----0-------0------0--------0------0--------------7--54h5p4-------|x4
D|--------------------------------2-2---2-------------7----------------------|
A|--3-3---3------3-3---3------------------------5--5-----5-------------------|
E|---------------------------------------------------------------------------|
Guitar 2
e|---------------------------------------------------------------------------|
B|--0-0-0--0-0-0------0-0-0------0-0-0--0-0-0----0-0----0--0--0--0-----------|
G|--0-0-0--0-0-0------0-0-0------0-0-0--0-0-0----0-0----0--0--0--0-----------|x4
D|--5-5-5--5-5-5------5-5-5------9-9-9--9-9-7----7-7----7--7--7--7-----------|
A|--3-3-3--3-3-3------3-3-3------7-7-7--7-7-5----5-5----5--5--5--5-----------|
E|---------------------------------------------------------------------------|
 
Chorus
Guitar 1&2
e|---------------------------------------------------------------------------|
B|---------------------------------------------------------------------------|
G|---------------------------------------------------------------------------|x2
D|-9--9-7--7-12-12-12-12-12-12-12-12--9-9-7-7-5-5-5-5-5-5-5------------------|
A|-7--7-5--5-10-10-10-10-10-10-10-10--7-7-5-5-3-3-3-3-3-3-3------------------|
E|---------------------------------------------------------------------------|
Guitars 1&2
e|---------------------------------------------------------------------------|
B|---------------------------------------------------------------------------|
G|---------------------------------------------------------------------------|
D|-9-9-7-7--5-5-5-5-5-5-5-5--7-7-7-7-7---------------------------------------|
A|-7-7-5-5--3-3-3-3-3-3-3-3--5-5-5-5-5---------------------------------------|
E|---------------------------------------------------------------------------|

Guitar 1
e|---------------------------------------------------------------------------|
B|---------0----[12]---------------------------------------------------------|
G|-----0-----0---------------------------------------------------------------|
D|---------------------------------------------------------------------------|
A|-3-3---3-------------------------------------------------------------------|
E|---------------------------------------------------------------------------|

Comments