From First To Last - Emily Chords & Tabs

 

Emily Chords & Tabs

From First To Last Chords & Tabs

Version: 3 Type: Tab 0 ratings
1 star 2 stars 3 stars 4 stars 5 stars
comments

Emily Tab

   
----------------------------------------------------------------------------
			 EMILY - From First To Last
----------------------------------------------------------------------------
Tabbed by: SavesTheDon
Email: fsf_snowbird@yahoo.com

Ok, i know there are two guitars in this song, but i have only figured out the one.
i think there may be something wrong with the chorus, so if you have some 
corrections/guitar 2's parts, just email me.

[ Tab from: http://www.guitartabs.cc/tabs/f/from_first_to_last/emily_tab_ver_3.html ]
Tuning: Standard (E A D G B E)
 INTRO (Guitar 1)                            |REPEAT 3x|
e|-------------------------|-----------------------------------------------|
B|------------------0------|---------------0---------------------0---------|
G|-------------------------|-----------------------------------------------|
D|------------5--------5---|---------5--------5-------------4------4-------|
A|------3--3-----3---------|--7--7------7------------5--5-----5------------|
E|-------------------------|-----------------------------------------------|
                              HARMONICS ONLY 1st TIME
e|----------------------|--------------------------------------------------|
B|------------------0---|--<12>--------------------------------------------|
G|----------------------|--------<12>--------------------------------------|
D|-----------5--------5-|--------------------------------------------------|
A|----3--3-------3------|--------------------------------------------------|
E|----------------------|--------------------------------------------------|
  VERSE (REPEAT 4x) (2)-->Shows number of measures per chord
e|-------------------------------------------------------------------------|
B|-------------------------------------------------------------------------|
G|--------------------------9-----------7----------------------------------|
D|---5----------------------9-----------7----------------------------------|
A|---5-(2)------------------7-----------5----------------------------------|
E|---3---------------------------------------------------------------------|
  Smile and her laughter...only thing...i've been waiting for

  CHORUS (REPEAT 4x)             INTRO (1x) Then
e|----3------------------------|-------------------------------------------|
B|----3------------------------|-------------0------------0----------------|
G|----4------------9-------7---|-------------------------------------------|
D|----5-(2)--------9-------7---|--------5------5------4-----4--------------|
A|----5------------7-------5---|--7--7-----7------5-5---5------------------|
E|----3------------------------|-------------------------------------------|
  
VERSE (4x)
CHORUS (4x)

 END WITH
e|-------------------------------------------------------------------------|
B|---------------0-----<12>------------------------------------------------|
G|-------------------------------------------------------------------------|
D|----------5------5-------------------------------------------------------|
A|----3--3-----3-----------------------------------------------------------|
E|-------------------------------------------------------------------------|
Comments