From Autumn To Ashes - The After Dinner Payback Chords & Tabs

 

The After Dinner Payback Chords & Tabs

From Autumn To Ashes Chords & Tabs

Version: 5 Type: Tab 0 ratings
1 star 2 stars 3 stars 4 stars 5 stars
comments

The After Dinner Payback Tab

E------------------|
B------------------|
G------------------|
D--2----------2----|
A--2----------2----|
E--0----------0----|

GTR II 4x
E---------------------------0-------|
B--7----8-----7-----7---8-------7---|
G-----9---9-9---9-9---9---9---9-----|
D-----------------------------------|
A-----------------------------------|
E-----------------------------------|


GTR I/GTR II
E--------------------------------------------------------------------|
B--------------------------------------------------------------------|
G-------------------------------------5-5--5-5--55555555--5-5--5-5---|
D-2-2--2-2------------2-2--2-2--------5-5--5-5--55555555--5-5--5-5---|
A-2-2--2-2------------2-2--2-2--------3-3--3-3--33333333--3-3--3-3---|
E-0-0--0-0--00000000--0-0--0-0--0000---------------------------------|
            ........            ....            ........


GTR II (Play Fast)

E---------------------------0------------------------------0-----|
B--7----8-----7-----7---8-------7-----7-7---8----7--8--7---------|
G-----9---9-9---9-9---9---9---9-----9-----9---9-9--9--9--9-------|
D----------------------------------------------------------------|
A----------------------------------------------------------------|
E----------------------------------------------------------------|


E-------------------------------0----------------0------------|
B------3---3--5------3----3---3---3---3----3---3---3---3------|
G---5----5------5--5----5---5-------5----5---5-------5--------|
D-------------------------------------------------------------|
A-------------------------------------------------------------|
E-------------------------------------------------------------|

GTR I
E--------------------------------------------------------------------|
B--------------------------------------------------------------------|
G-------------------------------------5-5--5-5--55555555--5-5--5-5---|
D-2-2--2-2------------2-2--2-2--------5-5--5-5--55555555--5-5--5-5---|
A-2-2--2-2------------2-2--2-2--------3-3--3-3--33333333--3-3--3-3---|
E-0-0--0-0--00000000--0-0--0-0--0000---------------------------------|
            ........            ....            ........

GTR II/GTR I
1x
E-----------------------------------------|
B-----------------------------------------|
G-----------------------------------------|
D-2-2--2-2------------2-2--2-2------------|
A-2-2--2-2------------2-2--2-2------------|
E-0-0--0-0--00000000--0-0--0-0--0000------|
            ........            ....

GTR II/GTR I
3x
E----------------------------------------|
B----------------------------------------|
G----------------------------------------|
D---7p5-4-5-5-4-5-4-4h5------------------|
A----------------------------------------|
E----------------------------------------|

Chorus
GTR II/GTR I
Play 1x
E----------------------------------------------------------------|
B----------------------------------------------------------------|
G--7--5--4-----------7--5--4----------7--5--4--5-----------------|
D-----------5-55555-----------7-77777-------------55555555555----|
A----------------------------------------------------------------|
E----------------------------------------------------------------|

GTR II/GTR I
3x
E-----------------------------------------------------------------|
B-----------------------------------------------------------------|
G--7--5--4-----------7--5--4----------7--5--4--5------------------|
D-----------5-55555-----------7-77777-------------55555555555-----|
A-----------------------------------------------------------------|
E-----------------------------------------------------------------|
                                                  .  .  .  .
[ Tab from: http://www.guitartabs.cc/tabs/f/from_autumn_to_ashes/the_after_dinner_payback_tab_ver_5.html ]
GTR II/GTR I
Play 2x
E--------------------------------------------------------------------|
B--------------------------------------------------------------------|
G--------------------------------------------------------------------|
D--555555555-44444444-55555555-44444444-22222222-44444444-55555555---|
A--------------------------------------------------------------------|
E--------------------------------------------------------------------|

E------------------------------------|
B------------------------------------|
G------------------------------------|
D--4444-55555555---------------------|
A------------------------------------|
E------------------------------------|

GTR II/GTR I

E---------------------------------------------------------------------------|
B---------------------------------------------------------------------------|
G--------------------7--5--4---------7--5--4---------7--5--4----------------|
D--555555555555555------------5-5555---------7-77777----------55555555555---|
A---------------------------------------------------------------------------|
E---------------------------------------------------------------------------|

GTR II/GTR I
3x
E-----------------------------------------------------------------|
B-----------------------------------------------------------------|
G--7--5--4-----------7--5--4----------7--5--4--5------------------|
D-----------5-55555-----------7-77777-------------55555555555-----|
A-----------------------------------------------------------------|
E-----------------------------------------------------------------|
                                                  .  .  .  .
GTR I
E------------------|
B------------------|
G------------------|
D--2----------2----|
A--2----------2----|
E--0----------0----|


GTR II 4x
E---------------------------0-------|
B--7----8-----7-----7---8-------7---|
G-----9---9-9---9-9---9---9---9-----|
D-----------------------------------|
A-----------------------------------|
E-----------------------------------|


GTR I/GTR II
E--------------------------------------------------------------------|
B--------------------------------------------------------------------|
G-------------------------------------5-5--5-5--55555555--5-5--5-5---|
D-2-2--2-2------------2-2--2-2--------5-5--5-5--55555555--5-5--5-5---|
A-2-2--2-2------------2-2--2-2--------3-3--3-3--33333333--3-3--3-3---|
E-0-0--0-0--00000000--0-0--0-0--0000---------------------------------|
            ........            ....            ........

GTR II (Play Fast)

E---------------------------0------------------------------0-----|
B--7----8-----7-----7---8-------7-----7-7---8----7--8--7---------|
G-----9---9-9---9-9---9---9---9-----9-----9---9-9--9--9--9-------|
D----------------------------------------------------------------|
A----------------------------------------------------------------|
E----------------------------------------------------------------|


E-------------------------------0----------------0------------|
B------3---3--5------3----3---3---3---3----3---3---3---3------|
G---5----5------5--5----5---5-------5----5---5-------5--------|
D-------------------------------------------------------------|
A-------------------------------------------------------------|
E-------------------------------------------------------------|


GTR II/GTR II
Play Slow:
E--------------------------------------------------------------------|
B--------------------------------------------------------------------|
G-------------------------------------5-5--5-5--55555555--5-5--5-5---|
D-2-2--2-2------------2-2--2-2--------5-5--5-5--55555555--5-5--5-5---|
A-2-2--2-2------------2-2--2-2--------3-3--3-3--33333333--3-3--3-3---|
E-0-0--0-0--00000000--0-0--0-0--0000---------------------------------|
            ........            ....            ........

GTR II/GTR I
3x
E----------------------------------------|
B----------------------------------------|
G----------------------------------------|
D---7p5-4-5-5-4-5-4-4h5------------------|
A----------------------------------------|
E----------------------------------------|

GTR II/GTR I
E------------------|
B------------------|
G------------------|
D--22---------22---|
A--22---------22---|
E--00---------00---|
Comments