From Autumn To Ashes - Sugar Wolf Chords & Tabs

 

Sugar Wolf Chords & Tabs

From Autumn To Ashes Chords & Tabs

Version: 3 Type: Tab

Sugar Wolf Tab

   
Hey, First time posting, I was just learning this song for my band and the tab thats
online for this doesn't seem to be for this song, so I figured I'd post what I figured
out.  I did up untill the solo, the solo tab seems ok, but I didn't really check, I only
like the first 3 minutes : )

Tuning: Standard

Intro Riff:

E|-------------------------------------------------------------|
B|-------------------------------------------------------------|
G|-16-16-16-------------------------------------------16-17-19-|
D|----------16-16-16-17-17-17----------------16-17-19----------|
A|----------------------------19-19-19-19-19-------------------|
E|-------------------------------------------------------------|

Play this riff 4 times solo then the rest of the band comes in with

E|-----------------------------------|
B|-----------------------------------|
G|-9-9-9-------9-9-9-------9-9-9-9---|
D|-9-9-9-------9-9-9-------9-9-9-9---|
A|-7-7-7-------7-7-7-------7-7-7-7---|
E|-------0-0-0-------0-0-0-----------|

You play the first two riffs 8 times together
then...
E|----------------------------------------|
B|----------------------------------------|
G|-9-7-5----------------------------------|
D|-x-x-x----------------------------------|
A|-7-5-3----------------------------------|
E|----------------------------------------|
[ Tab from: http://www.guitartabs.cc/tabs/f/from_autumn_to_ashes/sugar_wolf_tab_ver_3.html ]
Verse:
Play the first part twice then the second part twice
E|-------------------------------------|
B|-------------------------------------|
G|-------------------------------------|
D|-9-9-7-9-7-9-x-x-910-----------------|
A|-9-9-7-9-7-9-x-x-910-----------------|
E|-7-7-5-7-5-7-x-x-78------------------|

E|-----------------------------------|
B|-----------------------------------|
G|-5-5-5-7-7-7-7-12-12-12-12-11111111|
D|-x-x-x-x-x-x-x--x--x--x--x-x-x-x-x-|
A|-3-3-3-5-5-5-5-10-10-10-10-9-9-9-9-|
E|-----------------------------------|

you play those twice with the drum pushing the beat and then two more times with a
half time feel.  The forth time through, you cut to half speed on the last G and F#
in anticipation of...

The CHORUS (this is my favorite part):
E|----------------------------------------|
B|----------------------------------------|
G|-----------9-9-9-7-7--------------------|
D|-2-2-2-4^2-x-x-x-x-x-2-2-2-4^2-----5---7|
A|-2-2-2-2---7-7-7-5-5-2-2-2-2-----5------|
E|-0-0-0-0-------------0-0-0-0---3-----5--|

since there's two guitars, you double through most of it, except at the last G and A
where on arpeggiates the other just plays power chords.  You paly this riff 4 times.
After that it goes back to the intro, except you only play the riff solo twice and the
full band intro part like once or twice.  After that comes the verse, then the chorus,
then the boring part which I didn't tab cuz I don't like it.  Listen to the song, and
you'll figure it out, if you find that I'm doing something wrong, or you can figure out
the second guitar part (I can't pick out what the second part is when the parts differ)
email me at tshann934395@yahoo.com