From Autumn To Ashes - Short Stories With Tragic Endings Chords & Tabs

 

Short Stories With Tragic Endings Chords & Tabs

From Autumn To Ashes Chords & Tabs

Version: 3 Type: Tab 0 ratings
1 star 2 stars 3 stars 4 stars 5 stars
comments

Short Stories With Tragic Endings Tab

R - let note ring out 
/ - slide 
* - palm mute 
# then* - mute after note 
~ - bend 

INTRO (clean) 
|------------------------------------------------------------------------- 
|-----------0----------------0------------------0------------------0------ 
|------5------5---------5------5---------5--------5----------5------5-----
|---7----7------7----7----7-----7----7-----7--------7----7----7------7---- (4x) 
|-8-----------------8---------------0--------------------0---------------- 
|------------------------------------------------------------------------- 

guitar 1 (distortion) 
|------------------------------------------------------------------------- 
|-------------0----------------0----------------0----------------0-------- 
|--------5-------5--------5-------5--------5------5---------5------5------ 
|-----7----7-------7---7----7-------7---7-----7------7---7----7------7---- (4x) 
|------------------------------------------------------------------------- 
|------------------------------------------------------------------------- 

guitar 2 (distortion) 
|------------------------------------------------------------------------ 
|------------------------------------------------------------------------ 
|---------------------------------------2----------------2-2------------- 
|--3-----------------3-3----------------2----------------2-2------------- (2x) 
|--3-----------------3-3----------------0----------------0-0------------- 
|--1-----------------1-1------------------------------------------------- 
* * * * * * 

|------------------------------------------------------------------------ 
|------------------------------------------------------------------------ 
|------------------------- -------------2-----------------2-2------------ 
|--3------------------3-3---------------2-----------------2-2------------ (2x) 
|--3------------------3-3---------------0-----------------0-0------------ 
|--1------------------1-1------------------------------------------------ 

Guitar 1 (distortion) 
|----------------------------------------------------------------------- 
|----------------------------------------------------------------------- 
|--5----------------------------------5-5------------------------------- 
|--7----------------------------------7-7------------------------------- (2x) 
|--8----------------------------------8-0------------------------------- 
|----------------------------------------------------------------------- 

guitar 2 (distortion) 
|--------------------------------------------------------------------------- 
|--------------------------------------------------------------------------- 
|---------------------------------- ---3-2---------------------------------- 
|--3-----------------------------------3-2---------------------------------- (2x) 
|--3-----------------------------------3-0---------------------------------- 
|--1-----------------------------------1------------------------------------ 

Guitar 1+2 
|---------------------------------------------------------------------------- 
|---------------------------------------------------------------------------- 
|---------------------------------------------------------------------------- 
|---------5*-3*-5*-3*-2~----------5*--3*------------------------------------- 
|--2*-3*-------------------2*--3*---------3*--5*--3~------------------------- 
|---------------------------------------------------------------------------- 

Guitar 1+2 
|--------------------------------------------------------------------------- 
|--------------------------------------------------------------------------- 
|--------------------------------------------------------------------------- 
|-----------5*--3*-------------------------5*--3*-5*-3*-2~------------------ 
|--2*--3*---------3*--5*--3~-----2*-3*-------------------------------------- 
|--------------------------------------------------------------------------- 

...Its like choking, choking 
|------------------------------------------- 
|------------------------------------------- 
|------------------------------------------- 
|--------------00--------00----------------- 
|--------------00--------00----------------- 
|--------------22--------22----------------- 
** ** 
[ Tab from: http://www.guitartabs.cc/tabs/f/from_autumn_to_ashes/short_stories_with_tragic_endings_tab_ver_3.html ]
|------------------------------------------------- 
|------------------------------------------------- 
|-----999999*---10- --5555555-7------------------- 
|-----999999*---10- --5555555-7------------------- (4x) 
|-----777777*----7----3333333-5-------------------
|------------------------------------------------- 
******* 

guitar1 
|-------------------------------------------------------------------- 
|-------------------------------------------------------------------- 
|-9999999910101010101010101010101010101010121212121212--------------- 
|-9999999910101010101010101010101010101010121212121212--------------- (4x) 
|-77777777-7-7-7-7-7-7-7-7-7-7-7-7-7-7-7-7101010101010--------------- 
|-------------------------------------------------------------------- 


|------------------------------------------------------------------------------- 
|------------------------------------------------------------------------------- 
|-99999999-9/11-11-11-11-11-11-11-11-11-11/121212121212121212-12/14-141414141414 
|-99999999-9/11-11-11-11-11-11-11-11-11-11/121212121212121212-12/14-141414141414 
|-77777777-7/9--9--9--9--9--9--9--9--9--9/10-1010101010101010-10/12-121212121212 
|------------------------------------------------------------------------------- 


|------------------------------------------------------------------ 
|------------------------------------------------------------------ 
|------------------------------------------------------------------ 
|---------5*-3*-5*-3*-2~----------5*--3*--------------------------- (3x) 
|--2*-3*-------------------2*--3*---------3*--5*--3~--------------- 
|------------------------------------------------------------------ 


|------------------------------------------------------ 
|------------------------------------------------------ 
|------------------------------------------------------ 
|--22----3-2---22--3-2-----22-----3-2-----22----3-2---- (1x) 
|--22----------22----------22-------------22----------- 
|--00----------00----------00-------------00-----------
** ** ** ** 

guitar 1 
|------------------------ 
|------------------------- 
|------------------------- 
|----------------3-------- (1x) 
|--7---5---3-----3------- 
|----------------1------- 


guitar 2 
|------------------------- 
|------------------------- 
|------------------------- 
|--9---7---5-----3-------- (1x) 
|----------------3-------- 
|----------------1-------- 


guitar 1 (distortion) 
|------------------------------------------------------------------------ 
|------------0-----------------0----------------0----------------0------- 
|-------5-------5--------5-------5---------5------5---------5------5----- 
|-----7----7-------7---7----7-------7---7-----7------7---7----7------7--- (4x) 
|------------------------------------------------------------------------ 
|------------------------------------------------------------------------ 

guitar 2 (distortion) 
|------------------------------------------------------------------------- 
|------------------------------------------------------------------------- 
|------------------------------- -------2----------------2-2-------------- 
|--3-----------------3-3----------------2----------------2-2--------------(2x) 
|--3-----------------3-3----------------0----------------0-0-------------- 
|--1-----------------1-1--------------------------------------------------
* * * * * * 

|-------------------------------------------------------------------------- 
|-------------------------------------------------------------------------- 
|---------------------------------------2-----------------2-2--------------
|--3------------------3-3---------------2-----------------2-2--------------(2x) 
|--3------------------3-3---------------0-----------------0-0-------------- 
|--1------------------1-1-------------------------------------------------- 


Guitar 1 (distortion) 
|--------------------------------------------------------------------
|--------------------------------------------------------------------
|--5----------------------------------5-5----------------------------
|--7----------------------------------7-7----------------------------
|--8----------------------------------8-0----------------------------
|--------------------------------------------------------------------


guitar 2 (distortion) 
|--------------------------------------------------------------------
|--------------------------------------------------------------------
|--------------------------------------3-2---------------------------
|--3-----------------------------------3-2---------------------------
|--3-----------------------------------3-0---------------------------
|--1-----------------------------------1-----------------------------
Comments