From Autumn To Ashes - Short Stories With Tragic Endings Chords & Tabs

 

Short Stories With Tragic Endings Chords & Tabs

From Autumn To Ashes Chords & Tabs

Version: 2 Type: Tab 1 rating
1 star 2 stars 3 stars 4 stars 5 stars
comments

Short Stories With Tragic Endings Tab

   
Title: "Short Stories With Tragic Endings"
Artist: From Autumn Ashes
Album: Too Bad You're Beautiful
Tabbed Out By: Ben Newton (LoneGuitarist)
Tuning: Standard (E,A,D,G,B,E)
Tab #2
Next Planned Tab: "Bite To Break Skin" by Senses Fail
Previous Tab: "Hell Song" by Sum41

Pm...      means Palm Mute
h             means an accent
v             means Vibrato
R            means Rest
(RO)      means Ring Out
x             means mute

INTRO - Do this a total of 4x together.
(Guitar one):

E)-----------------------------------------
B)---------------------0------------------
G)-------------5-----------5--------------
D)--------7-------7------------7---------
A)---8-------------------------------------              
E)----------------------------------------- (2x)

E)------------------------------------------
B)-------------------0---------------------
G)------------5-----------5----------------
D)-------7-------7------------7-----------
A)---0--------------------------------------
E)------------------------------------------(2x)


PRE -VERSE - Guitar one keeps doing the same thing while Guitar two does this:
(Guitar two):

E)----------------------------------------------------------
B)----------------------------------------------------------
G)---1-------1--1-----------------------------------------
D)---3-------3--3------------------------2-------2--2---
A)---3-------3--3------------------------0-------0--0---
E)---1-------1--1-----------------------------------------
Pm  . . . . . . . . .                             . . . . . . . . . . . 


PRE -VERSE(Part two) - Guitar one continues the intro riff while Guitar two does this:
(Guitar two):

E)-----------------------------------------------------------------------------------------------------------------
B)------------------------------------------------------------------------------------------------------------------
G)---1----1-1-1-1-----1----1-1-1-1-----1---------------------------------------------------------------------
D)---3----3-3-3-3-----3----3-3-3-3-----3------------------------2----2-2-2-2-----2----2-2-2-2----2----
A)---3----3-3-3-3-----3----3-3-3-3-----3------------------------0----0-0-0-0-----0----0-0-0-0----0-----
E)---1----1-1-1-1-----1----1-1-1-1-----1---------------------------------------------------------------------(2x)



PRE -VERSE(Part three) - Guitar one finally changes:
(Guitar one):

E)---0-----
B)---0-----
G)---5-----
D)---7-----
A)---8-----
E)----------(2x)

E)---0-----
B)---0-----
G)---5-----
D)---7-----
A)---0-----
E)----------(2x)

Do this at the same time as Guitar one.
(Guitar two):

E)-------------------------------------------------
B)-------------------------------------------------
G)---1--------------------------------------------
D)---3-----------------------------------2--------
A)---3--------------------R-------------0--------
E)---1---------------------------------------------(2x)



VERSE: This really technical...and very fast:
(Both Guitars):

E)---------------------------------------------------
B)---------------------------------------------------
G)---------------------------------------------------
D)----------------5------3-------2-----------------
A)---2-2-3-2-2----2-2----2-2----2-2-5-2-3----
E)---------------------------------------------------
Pm .  .      .  .      .   .      .  .       .  .


E)--------------------------------------------------------------------------------------------------------
B)--------------------------------------------------------------------------------------------------------
G)--------------------------------------------------------------------------------------------------------
D)----------------5------3------2----------------------------------5------3-------2-------553322---
A)---2-2-3-2-2----2-2---2-2----2-2-5-2-3-------2-2-3-2-2----2-2----2-2----2-2---------------
E)---------------------------------------------------------------------------------------------------------(4x)
Pm  .  .     .   .      .   .    .   .     .  .                    .   .    .   .      .   .      .  .      .   .  ............


BRIDGE - This is all Bass except for these last notes:
(Both Guitars):

E)----------------------------
B)----------------------------
G)----------------------------
D)---2--2---------2--2------
A)---0--0---------0--0------
E)----------------------------
Pm  .   .             .    .


CHORUS - 
(Both Guitars):
[ Tab from: http://www.guitartabs.cc/tabs/f/from_autumn_to_ashes/short_stories_with_tragic_endings_tab_ver_2.html ]
E)------------------------------------------------------------------------
B)------------------------------------------------------------------------
G)---9--9--9--9--9--9--9-10------5--5--5--5--5--5--5---7--------
D)---9--9--9--9--9--9--9-10------5--5--5--5--5--5--5---7--------
A)---7--7--7--7--7--7--7--7-------3--3--3--3--3--3--3---5--------
E)------------------------------------------------------------------------(4x)


E)---------------------------------------------------------------------------
B)---------------------------------------------------------------------------
G)---9--9--9--9--11-11-11-11---12-12-12-12---14-14-14-14----
D)---x--x--x--x----x---x---x---x----x--x---x---x-----x---x---x---x-----
A)---7--7--7--7---9---9---9---9---10-10-10-10---12-12-12-12----
E)---------------------------------------------------------------------------(4x)



Repeat verse riff for second verse but only do it 2x and end with this:
(Guitar two):

E)---------------------------------------------------------------------
B)---------------------------------------------------------------------
G)----------------------------------------------------2h9--7---5----
D)--------3h2-------3h2------3h2----------------------------------
A)---2-2-------2-2-------2-2-------2-2-----------------------------
E)----------------------------------------------------------------------
Pm .  .           .  .          .  .          .  . 



Now, repeat PRE -VERSE 2x  and PRE -VERSE(Part two) 2x  and PRE -VERSE(Part Three) 2x.



Here comes the solo!
SOLO -
(Guitar one):

E)-------------------------------------------------------------------------------------------------------------------------------------------
B)-------------------------------------------------------------------8-8-8-8-8-8-----10-10-10-10-10-10-12-12-12-12-12-12---
G)---5-5-5-5-5-5-7-7-7-7-7-7-9-9-9-9-9-9-9-9-9-9-9-9---------------------------------------------------------------------------
D)-------------------------------------------------------------------------------------------------------------------------------------------
A)--------------------------------------------------------------------------------------------------------------------------------------------
E)--------------------------------------------------------------------------------------------------------------------------------------------

E)--------------------------------------------------------------------------------------------------------------------------------------------
B)---13-13-13-13-13-13-15-15-15-15-15-15-17-17-17-17-17-17-15-15-15-15-15-15-13-13-13-13-13-13------------
G)--------------------------------------------------------------------------------------------------------------------------------------------
D)--------------------------------------------------------------------------------------------------------------------------------------------
A)--------------------------------------------------------------------------------------------------------------------------------------------
E)--------------------------------------------------------------------------------------------------------------------------------------------

E)--------------------------------------------------/-----------------------------------------------------------------------------
B)---15-15-15-15-15-15---------(RO)----    /17--------------18-------------19-------------18----------17-----------
G)-----------------------------------------------    / v--(12x)-------v--(12x)------v--(12x)------v--(12x)---v--(10x)----
D)-----------------------------------------------    /-----------------------------------------------------------------------------
A)-----------------------------------------------    /-----------------------------------------------------------------------------
E)-----------------------------------------------   /-----------------------------------------------------------------------------

Repeat PRE -VERSE(Part two)

ACOUSTIC OUTRO - Now this is the best part.
(Guitar two):Strum these chords.

E)---0---------                        ----5---                      ----0---                      ----0---------
B)---0---------                        ----0---                      ----0---                      ----0---------
G)---5---------Next Chord -   ----4---Next Chord -  ----x---Next Chord -  ----x---------
D)---7---------                       ----5---                       ----5---                      ----7---------
A)---0---------                        ----0---                       ----3---                      ----5---------
E)-x-x-x-x-x-x-x-x-x-x-x-x-x-x-x-x-x-x-x-x-x-x-x-x-x-x-x-x-x-x-x-x-x-x-x-x-x-x-x-x-----

End on the 1st chord and let it ring out.

Questions, comments, hate mail, send to TheAstrisk1@aol.com

LoneGuitarist














Comments