From Autumn To Ashes - Short Stories With Tragic Endings Chords & Tabs

 

Short Stories With Tragic Endings Chords & Tabs

From Autumn To Ashes Chords & Tabs

Version: 1 Type: Tab 0 ratings
1 star 2 stars 3 stars 4 stars 5 stars
comments

Short Stories With Tragic Endings Tab

Can you believe this is the only TAB for 'From Autumn to Ashes'

This is the beginning as i could figure it out...

E--------------------------|
B--------------------------|
G-----5----4--5------------|
D---7---7--------7---------|
A-0------------------------|
E--------------------------|

The later part where the Girl sings (about 6 min or so in) goes something like this:
[ Tab from: http://www.guitartabs.cc/tabs/f/from_autumn_to_ashes/short_stories_with_tragic_endings_tab.html ]
E-------------------------------------|
B-------------------------------------|
G-5-------------------4--------------0|
D-7-(about 10x or so)-7--(10x again)-7|
A-0-------------------0--------------0|
E-------------------------------------|

That's all i've come up with so far. I'm sitting here with my acoustic TABbing as i listen, so i don't have any of the heavy metal parts down yet, if i get more, i'll definitely be sure to add them.

Any questions or comments should be directed to:

NoofNoof1@aol.com

Thank you,

James
Comments