From Autumn To Ashes - Reflections Chords & Tabs

 

Reflections Chords & Tabs

From Autumn To Ashes Chords & Tabs

Version: 3 Type: Tab 0 ratings
1 star 2 stars 3 stars 4 stars 5 stars
comments

Reflections Tab

   
b-bend		  
h-hammer on	  
p-pull off	  
x-palm muted	  
/-slide up	  
\-slide down	  
~-repeatedly                     
*-harmonics	  


Intro: Acoustic/Clean
Guitar 1:
Part 1(0:00-0:05)
 E|22-----0-----00-------------------\
 B|3--3-----3---2--2---2h3p2p0-2-3--- \
 G|4----4-----4-4----4---------------  \
 D|4------------4--------------------   \
 A|----------------------------------    \
 E|----------------------------------     \
Part 2(0:05-0:10)			   \
 E|22-----0-----00-----------------	    \
 B|3--3-----3---2--2---2h3p2p0-2---	     \
 G|4----4-----4-4----4-------------           \
 D|4------------4------------------            \
 A|--------------------------------             \
 E|--------------------------------              \
Part 3(0:10-0:15)				  \x2 but on part 4 the second time, play
 E|22-----0-----00-------------------           / E|22-----0-----0--0
 B|3--3-----3---2--2---2h3p2p0-2-3--           /  B|3--3-----3---2--2
 G|4----4-----4-4----4-------------           /   G|4----4-----4-4--4       
 D|4------------4-------------------         /    D|4------------4--4
 A|---------------------------------        /     A|-----------------
 E|--------------------------------        /      E|-----------------
Part 4(0:16-0:20)			    /
 E|22-----0-----0--3                       /
 B|3--3-----3---2--2                      /
 G|4----4-----4-4--4                     /
 D|4------------4--4                    /
 A|-----------------                   /
 E|-----------------                  /

During the second time around of the intro, guitar two plays this:

Guitar 2:
(0:27-0:35)
E|---------------------------------
B|-----------14-15-14--------------
G|-11-12-/14-----------11-11h12p11-
D|---------------------------------
A|---------------------------------
E|---------------------------------

Guitar 1 strumming pattern: just listen to the song to know how many times to strum. 
(0:41-1:40)
E|2~-----0~-----0~-----3~----\
B|3~-----3~-----2~-----2~---- \
G|4~-----4~-----4~-----4~----  \ just at the ending of     E|-2----\
D|4~-----4~-----4~-----4~----  / the strumming, he ends on B|-3---- \ let ring  
A|--------------------------- /				   G|-4---- /
E|---------------------------/				   D|-4----/

Guitar 2 during struming:
(0:43-0:51)
E|10--10-9--------------------------------------
B|---------10--10-8-8-8-8-8-8-8-8-8p10-\7-------
G|----------------------------------------------
D|----------------------------------------------
A|----------------------------------------------				 
E|----------------------------------------------

(0:52-1:01)
E|10-9-9-9-7---7-------
B|-----------8---------
G|---------------9-7-6-
D|---------------------
A|---------------------
E|---------------------
 
(1:02-1:11)
E|10-10-10-10-10-10-10-10-9-9-9-9-9-9-9-9-7-7-7-7-7-7-7-7----------
B|----------------------------------------------------------------- 
G|---------------------------------------------------------12-11-9-  
D|-----------------------------------------------------------------
A|----------------------------------------------------------------- 
E|-----------------------------------------------------------------

(1:12-1:20)
E|10-10-10-10-10-10-10-10-9-9-9-9-9-9-9-9--------------------------
B|----------------------------------------7-7-7-7-7-7-7-7---------- 
G|---------------------------------------------------------12-11-9-   
D|-----------------------------------------------------------------  
A|----------------------------------------------------------------- 
E|-----------------------------------------------------------------

(1:21-1:30)
E|1010101010101010-12-12-12-12-12-12-12-12-14-14-14-14-14-14-14-14-15-15-15
B|--------------------------------------------------------------------------
G|-------------------------------------------------------------------------
D|--------------------------------------------------------------------------
A|--------------------------------------------------------------------------
E|--------------------------------------------------------------------------

 15-14-14-14-14-14-12-10-
 ------------------------
 ------------------------
 ------------------------
 ------------------------
 ------------------------

(1:31-1:40)
E|10-10-10-10-10-10-10-10p12-9-9-9-9-9-9-9-9------------------
B| -------------------------------------------7-7-7-7-7-7-7-7-
G| -----------------------------------------------------------
D| -----------------------------------------------------------
A| -----------------------------------------------------------
E| -----------------------------------------------------------
 
 -9/10-10-10-10-10-10-10-9-9-9-9-9-9-9---
 --------------------------------------7-
 ----------------------------------------
 ----------------------------------------
 ----------------------------------------
 ----------------------------------------

Guitar 1 stops strumming and back to the intro from(1:40-1:59) 
Guitar 2:
(1:41-1:49)
E|-------------------------------------
B|-15-141514---------------------------
G|-----------16-14-12-11----9-11---7-6-
D|-------------------------------9-----
A|-------------------------------------
E|-------------------------------------

Guitar 2:
(1:51-2:00)
E|--------------------------------------------------
B|--------------------------------------------------
G|----------11/-14-12-11h12p11---9-11---7-6---6-----
D|-11-12-14---------------------------9-----5---5-4-
A|--------------------------------------------------
E|--------------------------------------------------

Guitar 2:
(2:05-2:20)
E|-------------------------------------
B|-15-14-------------------------------
G|-------14-14-12-11--9-7-6--6-7/9-11--
D|-------------------------------------
A|-------------------------------------
E|-------------------------------------

Guitar 1: strums at (2:00,2:02,2:04,2:07,2:08,2:09,2:12,2:13,2:14,2:17,2:18,2:20) 
	  these:

E|2---0---0---0-0--2---3-2--2---0-0--2-
B|3---2---3---3-3--3---2-3--3---2-3--3- 
G|4---4---4---4-4--4---4-4--4---4-4--4-     	
D|4---4---4---4-4--4---4-4--4---4-4--4-  
A|------------------------------------- 							   
E|-------------------------------------							   


Distorted
Guitar 1:
(2:25-2:38)
E|---------------------------------------------\
B|--------------------------------------------- \
G|----------9999-10101010-9999-7777-5555-------  \
D|-22222---------------------------------------   \       
A|-22222---------------------------------------    \        
E|-00000---------------------------------------     \       
   xxxxx                                             | X2  
E|---------------------------------------------     / 
B|---------------------------------------------    /
G|---------9999-10101010-12121212-14141414-16b-   /
D|-22222---------------------------------------  / 
A|-22222--------------------------------------- /
E|-00000---------------------------------------/
   xxxxx

Guitar 2:
(2:25-2:38)
E|---------------------------------------------\
B|--------------------------------------------- \
G|----------9999-10101010-9999-7777-5555-------  \
D|-22222---------------------------------------   \       
A|-22222---------------------------------------    \       
E|-00000---------------------------------------     \       
   xxxxx                                             | X2
E|---------------------------------------------     /
B|---------------------------------------------    /
G|---------9999-10101010-12121212-14141414-16b-   /
D|-22222---------------------------------------  /
A|-22222--------------------------------------- /
E|-00000---------------------------------------/
   xxxxx

Both Guitars:
(2:39-2:50)
E|---------------------------------------
B|---------------------------------------
G|---------------------------------------
D|-22222---22222---22222---22222---------
A|-22222---22222---22222---22222---------
E|-00000---00000---00000---00000---------
   xxxxx   xxxxx   xxxxx   xxxxx
[ Tab from: http://www.guitartabs.cc/tabs/f/from_autumn_to_ashes/reflections_tab_ver_3.html ]
Guitar 1:
(2:51-3:11)
E|---------------------------------------\
B|--------------------------------------- \
G|-------------------------7-------------  \
D|-222222222---222222222---x-------------   \
A|-222222222---222222222---5-------------    \
E|-000000000---000000000-----------------     \
   xxxxxxxxx   xxxxxxxxx                       \ X4 but play this the fourth time:
                                               / 
E|--------------------------------------- 
B|---------------------------------------
G|-7-9-10-9-7---------------------------- 
D|------------10-9-7-9-10-9-7-9-7--------2- 
A|--------------------------------10-----2
E|---------------------------------------0-
                   

Guitar 2:
(2:51-3:11)
E|---------------------------------------\
B|--------------------------------------- \
G|-------------------------7-------------  \
D|-222222222---222222222---x-------------   \
A|-222222222---222222222---5-------------    \
E|-000000000---000000000-----------------     \
   xxxxxxxxx   xxxxxxxxx                       \ X4 but do the same thing on the fourth time
                                               /    as guitar 1 does
E|---------------------------------------     /     
B|---------------------------------------    / 
G|---------------------------------------   /  
D|-5-7-8-7-5-----------------------------  /     
A|-----------8-7-5-7-8-7-5-7-5----------- /    
E|-----------------------------8---------/    

Both Guitars:
(3:13-3:20)
E|--------------
B|--------------
G|--------------
D|-2----2----2--Let Each Ring
A|-2----2----2--
E|-0----0----0--


Guitar 1:Acoustic
(3:21-3:51)
E|-00000000000--00000--000000--\
B|-00000000000--22222--333333-- \
G|-44444444444--44444--444444--  \   
D|-44444444444--44444--444444--  / X6
A|----------------------------- /
E|-----------------------------/

Guitar 2: Clean
(3:31-3:48)
e|-----------------------------------------------------------------------|
B|---0-------0-------0---------------------------------------------------|
G|--0-0-----0-------0-0--------------------------------------------------|
D|-4---4---4-------4---4----0--0-----------------------------------------|
A|2-----2-0-----0-5-----5--2--4-0----------------------------------------|
E|------------------------3/-5-------------------------------------------|

Both Guitars: Distorted
(3:51-4:10)
E|---------------------------------\
B|--------------------------------- \
G|-----------5*--------------------  \ X4
D|---------5*---------------------- /
A|-999-7-5*-----555-444-555-444-55-- /
E|-777-5--------333-222-333-222-33--/
                xxx xxx xxx xxx xx

Both Guitars:
(4:11-4:24)
E|-------------------------	
B|-------------------------	
G|-------------------------	
D|-2-333-2-333-2-333-2-333-	
A|-2-333-2-333-2-333-2-333-	
E|-0-111-0-111-0-111-0-111-	
     xxx   xxx   xxx   xxx

Guitar 1 & 2:
(4:25-4:50)
E|------------------\ Note: Guitar 2 only plays this 4 times
B|------------------ \      from (4:25-4:37)
G|------------------  \
D|-22222-222-333----  / X8  
A|-22222-222-333---- /
E|-00000-000-111----/
   xxxxx xxx xxx

Guitar 2:
(4:38-4:53)
E|----2-3-2---2-3-2---2-3-2---2-3-2------\ 
B|--0-------0-------0-------0------------ \
G|---------------------------------------  \
D|---------------------------------------  / X5 but the fifth one is
A|--------------------------------------- /     by itself
E|---------------------------------------/

Guitar 1:
(4:54-5:08)
E|---------------------------------------------\
B|----------9999-10101010-9999-7777-5555------- \
G|---------------------------------------------  \
D|-22222---------------------------------------   \       
A|-22222---------------------------------------    \        
E|-00000---------------------------------------     \       
   xxxxx                                             | X2  
E|---------------------------------------------     / 
B|---------9999-10101010-12121212-14141414-16b-    /
G|---------------------------------------------   /
D|-22222---------------------------------------  / 
A|-22222--------------------------------------- /
E|-00000---------------------------------------/
   xxxxx

Guitar 2:
(4:54-5:07)
E|---------------------------------------------\
B|--------------------------------------------- \
G|----------9999-10101010-9999-7777-5555-------  \
D|-22222---------------------------------------   \       
A|-22222---------------------------------------    \       
E|-00000---------------------------------------     \       
   xxxxx                                             | X2
E|---------------------------------------------     /
B|---------------------------------------------    /
G|---------9999-10101010-12121212-14141414-16b-   /
D|-22222---------------------------------------  /
A|-22222--------------------------------------- /
E|-00000---------------------------------------/
   xxxxx


Both Guitars:
(5:08-5:21)
E|-----------------------------------------
B|-----------------------------------------
G|-----------------------------------------
D|-22222---22222---22222---22222--9--7--5--
A|-22222---22222---22222---22222--7--5--3--
E|-00000---00000---00000---00000-----------
   xxxxx   xxxxx   xxxxx   xxxxx

Guitar 1:
(5:22-5:42)
E|------------------------------------------------\
B|------------------------------------------------ \
G|------------------------------------------------  \
D|-7-777-7-77-9-999-999-5-555-555-12121212-111111-  / X4
A|-5-555-5-55-7-777-777-3-333-333-10101010-9-9-9-- /
E|------------------------------------------------/
     xxx   xx   xxx  xx   xxx  xx   xxxxxx   xx


Guitar 2:
(5:22-5:31)
E|---------------------------
B|---------------------------
G|---------------------------
D|-7---7---5----pick slide---
A|-5---5---3-----------------
E|---------------------------

Guitar 2:
(5:32-5:42)     
E|------------------------------------------------\
B|------------------------------------------------ \
G|------------------------------------------------  \
D|-7-777-7-77-9-999-999-5-555-555-12121212-111111-  / X2
A|-5-555-5-55-7-777-777-3-333-333-10101010-9-9-9-- /
E|------------------------------------------------/
     xxx   xx   xxx  xx   xxx  xx   xxxxxx   xx

Guitar 1:
(5:42-6:04)
E|----------10-------------------10-------------------10----------------10----------\
B|-10-12-10----12-10-10-10-12-10----12-10h12---8-12-8----12-10-8-8-12-8----12-10h12- \
G|----------------------------------------------------------------------------------  \
D|----------------------------------------------------------------------------------  / X4
A|---------------------------------------------------------------------------------- /
E|----------------------------------------------------------------------------------/


Guitar 2:
(5:42-6:04)
E|------------------------------------------------\
B|------------------------------------------------ \
G|------------------------------------------------  \
D|-7-777-7-77-9-999-999-5-555-555-12121212-111111-  / X4
A|-5-555-5-55-7-777-777-3-333-333-10101010-9-9-9-- /
E|------------------------------------------------/
    
Both Guitars:
(6:05-6:18)
E|---------------------------------------
B|---------------------------------------
G|---------------------------------------
D|--77777-55555-77777-55555--------------
A|--55555-33333-55555-33333-----22222-SLOW palm mute
E|------------------------------00000----
    xxxxx xxxxx xxxxx xxxxx     xxxxx
     
Guitar 1 & 2:
(6:21-6:49)
E|------------------\ Note: Guitar 2 only plays it 4 times
B|------------------ \      from (6:21-6:35)
G|------------------  \
D|-22222-222-333----  / X8
A|-22222-222-333---- /
E|-00000-000-111----/
   xxxxx xxx xxx

Guitar 2:
(6:35-6:49)
E|----2-3-2---2-3-2---2-3-2---2-3-2 let ring------\
B|--0-------0-------0-------0--------------------- \
G|------------------------------------------------  \
D|------------------------------------------------  / X4 
A|------------------------------------------------ /
E|------------------------------------------------/

Guitar 2:
(6:50-7:01)
E|-2-3-2-0--2-3-2-0-
B|------------------ 
G|------------------ 
D|------------------   
A|------------------
E|------------------

Both Guitars:
(7:06-7:23)
E|------------------\
B|------------------ \
G|------------------  \
D|-22222-222-333----  / X4
A|-22222-222-333---- /
E|-00000-000-111----/
   xxxxx xxx xxx
Comments