From Autumn To Ashes - Reflections Chords & Tabs

 

Reflections Chords & Tabs

From Autumn To Ashes Chords & Tabs

Version: 1 Type: Tab 0 ratings
1 star 2 stars 3 stars 4 stars 5 stars
comments

Reflections Tab

 / - slide up
 \ - slide down
 h - hammer-on
 p - pull-off
 ~ - vibrato
 x - Mute note
 " - untill next note sounds


e|---------------------------------------------------------------------------------------|
B|-----------9" 10" 9" 7" 5"-------------------------------------------------------------|
G|---------------------------------------------------------------------------------------|
D|22222----------------------------------------------------------------------------------|
A|22222----------------------------------------------------------------------------------|
E|00000-----------------------------------------------------------------------xxxxx------|

e|---------------------------------------------------------------------------------------|
B|-----------9" 10" 12" 14" 16-----------------------------------------------------------|
G|---------------------------------------------------------------------------------------|
D|22222----------------------------------------------------------------------------------|
A|22222----------------------------------------------------------------------------------|
E|00000-----------------------------------------------------------------------xxxxx------|

e|--------------------------------------------------------------------------|
B|--------------------------------------------------------------------------|
G|--------------------------------------------------------------------------|
D|22222---22222---22222---22222---------------------------------------------|
A|22222---22222---22222---22222---------------------------------------------|
E|00000---00000---00000---00000---------------------------------------------|  xxxxx   xxxxx   xxxxx   xxxxx

e|--------------------------------------------------------------------------|
B|--------------------------------------------------------------------------|
G|--------------------------------------------------------------------------|
D|--------------------------------------------------------------------------|
A|222222222---222222222-----------------------------------------------------|
E|222222222---222222222-----------------------------------------------------|

e|--------------------------------------------------------------------------|
B|--------------------------------------------------------------------------|
G|--------------------------------------------------------------------------|
D|--------------------------------------------------------------------------|
A|000000000---000000000-----------------------------------------------------|
E|000000000---000000000-----------------------------------------------------|

e|--------------------------------------------------------------------------|
B|--------------------------------------------------------------------------|
G|7-9-10-9-7----------------------------------------------------------------|
D|-----------10-9-7-9-10-9-7-9-7--------------------------------------------|
A|-------------------------------10-----------------------------------------|
E|--------------------------------------------------------------------------|

Chords hear the song for the right rhythm


e|0-----0-----0-------------------------------------------------------------|
B|0-----2-----3-------------------------------------------------------------|
G|4-----4-----4-------------------------------------------------------------|
D|4-----4-----4-------------------------------------------------------------|
A|2-----0-----0-------------------------------------------------------------|
E|3-----3-----3-------------------------------------------------------------|


Second Guitar

e|--------------------------------------------------------------------------|
B|---0-------0-------0------------------------------------------------------|
G|--0-0-----0-------0-0-----------------------------------------------------|
D|-4---4---4-------4---4----0--0--------------------------------------------|
A|2-----2-0-----0-5-----5--2--4-0-------------------------------------------|
E|------------------------3/-5----------------------------------------------|


e|--------------------------------------------------------------------------|
B|-------5x-----------------------------------------------------------------|
G|------5x------------------------------------repeat as many times needed---|
D|9--7-5x-----555-444-555-444-444-------------------------------------------|
A|7--5--------333-222-333-222-222-------------------------------------------|
E|--------------------------------------------------------------------------|
              xxx xxx xxx xxx xxx
e|--------------------------------------------------------------------------------------------|
B|--------------------------------------------------------------------------------------------|
G|--------------------------------------------------------------------------------------------|
D|-22222-222-333---------------repeat as many times neeeded-----------------A|-22222-222-333--|
E|-00000-000-111------------------------------------------------------------------------------|
   xxxxx xxx xxx


Second Guitar
[ Tab from: http://www.guitartabs.cc/tabs/f/from_autumn_to_ashes/reflections_tab.html ]
e|--------------------------------------------------------------------------|
B|-----8--------8---------8---------8---------------------------------------|
G|--11---11---11--11---11---11---11---11------------------------------------|
D|9---------9--------9---------9--------------------------------------------|
A---------------------------------------------------------------------------|
E|--------------------------------------------------------------------------|

e|--------------------------------------------------------------------------|
B|----------9"-10"-9"-7"-5"-------------------------------------------------|
G|--------------------------------------------------------------------------|
D|22222---------------------------------------------------------------------|
A|22222---------------------------------------------------------------------|
E|00000---------------------------------------------------------------------|
  xxxxx
e|--------------------------------------------------------------------------|
B|----------9"-10"-12"-14"-16-----------------------------------------------|
G|--------------------------------------------------------------------------|
D|22222---------------------------------------------------------------------|
A|22222---------------------------------------------------------------------|
E|00000---------------------------------------------------------------------|
  xxxxx
e|--------------------------/-----------------------------------------------|
B|--------------------------/-----------------------------------------------|
G|--------------------------/---9--7--5-------------------------------------|
D|22222---22222---22222-----/---9--7--5-------------------------------------|
A|22222---22222---22222-----/---7--5--3-------------------------------------|
E-00000---00000---00000-----/-----------------------------------------------|
  xxxxx   xxxxx   xxxxx
e|---------------------------------------------------------------------------|
B|---------------------------------------------------------------------------|
G|-7-7-7-7--9-999-99-5-5-5-5--12121212121212-----those are 12 and 10's-------|
D|-5-5-5-5--7-777-77-3-3-3-3--10101010101010---------------------------------|
A|---------------------------------------------------------------------------|
E|---------------------------------------------------------------------------|

e|---------10-------------------10------------------------------------------|
B|-8-12-10----12-10-12-10-12-10----12-10------------------------------------|
G|--------------------------------------------------------------------------|
D|--------------------------------------------------------------------------|
A|--------------------------------------------------------------------------|
E|--------------------------------------------------------------------------|

e|--------10----------------10----------------------------------------------|
B|-8-12-8----12-8-12-8-12-8----12-10----------------------------------------|
G|--------------------------------------------------------------------------|
D|--------------------------------------------------------------------------|
A---------------------------------------------------------------------------|
E|--------------------------------------------------------------------------|

e|---------------------------------------------------------------------------|
B|---------------------------------------------------------------------------|
G|---------------------------------------------------------------------------|
D|-77777---55555-------------------------------------------------------------|
A|-55555---33333-------------------------------------------------------------|
E|---------------------------------------------------------------------------|
   xxxxx   xxxxx

e|---------------------------------------------------------------------------|
B|---------------------------------------------------------------------------|
G|---------------------------------------------------------------------------|
D|-22222-222-333-------------------------------------------------------------|
A|-22222-222-333-------------------------------------------------------------|
E|-00000-000-111-------------------------------------------------------------|
   xxxxx xxx xxx


Second Guitar

e|--------------------------------------------------------------------------|
B|-----8--------8---------8---------8---------------------------------------|
G|--11---11---11--11---11---11---11---11------------------------------------|
D|9---------9--------9---------9--------------------------------------------|
A---------------------------------------------------------------------------|
E|--------------------------------------------------------------------------|


e|--------------------------------------------------------------------------------------------|
B|--------------------------------------------------------------------------------------------|
G|--------------------------------------------------------------------------------------------|
D|-22222-222-333---------------repeat as many times neeeded-----------------A|-22222-222-333--|
E|-00000-000-111------------------------------------------------------------------------------|
   xxxxx xxx xxx
Comments