From Autumn To Ashes - Reflections Chords & Tabs

 

Reflections Chords & Tabs

From Autumn To Ashes Chords & Tabs

Version: 1 Type: Bass Tab 0 ratings
1 star 2 stars 3 stars 4 stars 5 stars
comments

Reflections Bass Tab

-----------------------------------------------------
-------------------repeat as needed------------------
-----------------------------------------------------
-0-----0-0-0-0-0---0-0-0-0-0---0-0-0-0-0---0-0-0-0-0-

-repeat as-----------------2-3-2-0-0-0-0-0-0-0-0-0-0-
----needed-------------------------------------------
------------------------5----------------------------
-0-0-0-0-0---0-0-0-0-0-------------------------------

----------------------------------------------
---------------------------------------------- repeat
---2-----0-----5------------------------------ as needed
--------------------3-----5-------------------
[ Tab from: http://www.guitartabs.cc/tabs/f/from_autumn_to_ashes/reflections_btab.html ]
----------------------------------------------
---------------------------------------------- repeat as 
---2---2-2-2-2---0---------------------------- needed
---------------------3-3-3-3-3-3-3-3-3-3-3-3--

-------------------------------------------------------
-------------------------------------------------------
-------------------------------------------------------
-1-1-1---0---1-1-1---0---1-1-1---0---1-1-1---0---1-1-1-

-------------------------------------- riff 2
-------------------------------------- repeat 
-------------------------------------- as needed
-0-0-0-0-0---0-0-0-1-1-1--------------

back to intro

--------------------------------------
--------------------------------------
---5---5/6---3---10---9---5-----------
--------------------------------------

------repeat as needed------------------------------
----------------------------------------------------
-5---5-5-5---5-5-5---5-5-5---5/6---3---3-3-3---10-9-
----------------------------------------------------

back to riff 2

-rock out-         nora riot squad
Comments