From Autumn To Ashes - No Trivia Chords & Tabs

 

No Trivia Chords & Tabs

From Autumn To Ashes Chords & Tabs

Version: 1 Type: Tab 0 ratings
1 star 2 stars 3 stars 4 stars 5 stars
comments

No Trivia Tab

e------------------------------------------------------------0--------------|
b----------0-------------0---------------0-------------0--------------------|
g------8-----8-------8-----8---------8-----8-------8-----8------------------|
d----6---6-----6---6---6-----6-----6---6-----6---6---6-----6----------------|
a--4-------------4-------------4-0-------------0----------------------------|
e---------------------------------------------------------------------------|

e----------0-------------0---------------0-----0-------0--------------------|
b------4-----4-------4-----4---------4-----4-------4-----4------------------|
g----4---4-----4---4---4-----4-----4---4-----4---4---4-----4----------------|
d---------------------------------------------------------------------------|
a--4-------------4-------------4-0---------------------------0--------------|
e---------------------------------------------------------------------------|

e---------------------------------------------------------------------------|
b---------------------------------------------------------------------------|
g--13-13-13-13xx13-13-13-13xx13/14/13--1111111xx1111111xx1111111--16-16-16--|
d---------------------------------------------------------------------------|
a--11-11-11-11xx11-11-11-11xx11/12/11--9-9-9-9xx9-9-9-9xx9-9-9-9--14-14-14--|
e---------------------------------------------------------------------------|

e---------------------------------------------------------------------------|
b---------------------------------------------------------------------------|
g--9-9-9--16-16-16--9-9-9--16-16-16--9-9--7-7--14-14-14-14-14-14-14---------|
d---------------------------------------------------------------------------|
a--7-7-7--14-14-14--7-7-7--14-14-14--7-7--9-9--12-12-12-12-12-12-12---------|
e---------------------------------------------------------------------------|
[ Tab from: http://www.guitartabs.cc/tabs/f/from_autumn_to_ashes/no_trivia_tab.html ]
e----------------------0----------------------------------------------------|
b------4-----------4--------------------------------------------------------|
g----4---4-------4---4------------------------------------------------------|
d---------------------------------------------------------------------------|
a--4-------0---4------------------------------------------------------------|
e---------------------------------------------------------------------------|

e---------------------------------------------------------------------------|
b---------------------------------------------------------------------------|
g---------------------------------------------------------------------------|
d--6-6-6-6-6--6-6-6-6-6--2-2-2-2-2--2-2-2-2-2-------------------------------|
a--4-4-4-4-4--4-4-4-4-4--0-0-0-0-0--0-0-0-0-0-------------------------------|
e---------------------------------------------------------------------------|
   .........  .........  .........  .........

e----------------------------------------------------------------------------|
b----------------------------------------------------------------------------|
g--13-13-13-13-13-13-13-13-13-13-13-13-13-13--14-14-14--13-13-13-13-13-13-13-|
d----------------------------------------------------------------------------|
a--11-11-11-11-11-11-11-11-11-11-11-11-11-11--12-12-12--11-11-11-11-11-11-11-|
e----------------------------------------------------------------------------|

e---------------------------------------------------------------------------|
b---------------------------------------------------------------------------|
g--13-13-13-13-13-13-13-13--14-14-14--9-9--1111-13-13--11/14----------------|
d---------------------------------------------------------------------------|
a--11-11-11-11-11-11-11-11--12-12-12--7-7--9-9--11-11--9/11-----------------|
e---------------------------------------------------------------------------|
Comments