From Autumn To Ashes - No Trivia Chords & Tabs

 

No Trivia Chords & Tabs

From Autumn To Ashes Chords & Tabs

Version: 2 Type: Bass Tab 0 ratings
1 star 2 stars 3 stars 4 stars 5 stars
comments

No Trivia Bass Tab

   
from The Fiction We Live
No Trivia
Words and Music by From Autumn To Ashes
Tuning - E A D G


Verse
|-------------------------------------------------|
|-------------------------------------------------|
|-444--4-44---------------444--4-44---------------|
|-------------555--5-55---------------555--5-55---|

|-------------------------------------------------|
|-------------------------------------------------|
|-444--4-44---------------444--4-44---------------|
|-------------555--5-55---------------555--5~~~~~~|

Chorus
|--------------------------------------------------------------------------|
|--------------------4444--4444--44444--6666--6666--66666------------------|
|--------------------2222--2222--22222--4444--4444--44444------------------|
|-0000--0000--00000----------------------------------------5-55-555---XXXX-|

|--------------------------------------------------------------------------|
|--------------------4444--4444--44444--6666--6666--66666------------------|
|--------------------2222--2222--22222--4444--4444--44444------------------|
|-0000--0000--00000----------------------------------------5-55-555-5-55-5-|

Verse 2
|-------------------------------------------------|
|-------------------------------------------------|
|-444--4-44---------------444--4-44---------------|
|-------------555--5-55---------------555--5-55---|
[ Tab from: http://www.guitartabs.cc/tabs/f/from_autumn_to_ashes/no_trivia_btab_ver_2.html ]
|-------------------------------------------------|
|-------------------------------------------------|
|-444--4-44---------------444--4-44---------------|
|-------------555--5-55---------------555--5-555--|

Pre-Interlude
|----------------|
|----------------|
|-4~~~~~~~~~-4/--|
|----------------|

- Break For Guitar -

Interlude
|-------------------------------------|
|-------------------------------------|
|-44444---44444------------------9/---|
|-----------------55555---55555-------|

|-------------------------------------|
|-------------------------------------|
|-44444---44444-----------------------|
|-----------------55555---55555-5~~~~~|

Outro
|------------------------------------|
|------------------------------------|
|-7777777777777777-6666666666666666--|
|------------------------------------|

|------------------------------------|
|---------------------------2--------|
|-4444444444444444-2-22-2/4-0-00-000-|
|------------------------------------|

|------------------------------------|
|------------------------------------|
|-7777777777777777-6666666666666666--|
|------------------------------------|

|-----------------------------------------|
|---------------------------2-------------|
|-4444444444444444-2-22-2/4-0-00-000-0~~~-|
|------------------------------------5~~~-|



Verse
Chorus
Verse  2
Chorus
Pre-Interlude
- Break -
Interlude
Chorus
Outro
Comments