From Autumn To Ashes - Milligram Smile Chords & Tabs

 

Milligram Smile Chords & Tabs

From Autumn To Ashes Chords & Tabs

Version: 3 Type: Tab 0 ratings
1 star 2 stars 3 stars 4 stars 5 stars
comments

Milligram Smile Tab

   
Tuning: Standard (E A D G B E)



Key:
* palm mute
x dead mute
h hammer on
p pull off
~ let ring
/ slide

Intro(Guitar 1)
E|----------------------------------------------------------------||
B|----------------------------------------------------------------||
G|-9------7------5-------7-7-12--7-7-12--12-7-7-------------------||
D|-x(12x)-x(12x)-x(12x)--x-x--x--x-x--x---x-x-x-------------------||
A|-7------5------3-------5-5-10--5-5-10--10-5-5-------------------||
E|----------------------------------------------------------------||
                           *       *     *

Verse part 1(Guitar 1) (2x)
E|--------------------------------||
B|--------------------------------||
G|-9------7------5------7---------||
D|-x(12x)-x(12x)-x(12x)-x(12x)----||
A|-7------5------3------5---------||
E|--------------------------------||


Verse part 1(Guitar 2) (2x) 
E|-------|--------------------------------------------------------||
B|---***-|--------------------------------------------------------||
G|-9-----|-11-----14-14-14/12-12/11----17-17-17/16-16/14----------||
D|-x(12x)|--x(8x)--x--x--x--x--x--x-----x--x--x--x--x--x(2x)------||
A|-7-----|--9-----12-12-12/10-10/-9----15-15-15/14-14/12----------||
E|-------|--------------------------------------------------------||

E|------------------------------------------------||
B|------------------------------------------------||
G|-19-19-19/17-17/16-16-14-14-14/12-12/11---------||
D|--x--x--x--x--x--x--x--x--x--x--x--x--x---------||
A|-17-17-17/15-15/14-14-12-12-12/10-10/-9---------||
E|------------------------------------------------||

***start with this instead of other intro the second time
E|--------------------------------||
B|--------------------------------||
G|-12-----11-11-11-11-11/12-------||
D|--x(8x)--x--x--x--x--x--x-------||
A|-10------9--9--9--9--9/10-------||
E|--------------------------------||

Verse part 2(Guitar 1)
E|----------------------------------------------------------------||
B|----------------------------------------------------------------||
G|-55-------5-5---------------------------------------------------||
D|-55-------5-5------(2x)-22-22222-2-2-2222222--------------------||
A|-33-------3-3-----------22-22222-2-2-2222222(2x)----------------||
E|------------------------00-00000-0-0-0000000--------------------||
                             *****    (*******)shred it
Verse part 2(Guitar 2)
E|----------------------------------------------------------------||
B|----------------------------------------------------------------||
G|-55-55555-5-5-55555---------------------------------------------||
D|-55-55555-5-5-55555(2x)-22-22222-2-2-2222222--------------------||
A|-33-33333-3-3-33333-----22-22222-2-2-2222222(2x)----------------||
E|------------------------00-00000-0-0-0000000--------------------||
      *****     *****        *****    (*******)shred it

Verse part 2 continued(Guitar 1)
E|----------------------------------------------------------------||
B|----------------------------------------------------------------||
G|-55-55555-5-5-55555---------------------------------------------||
D|-55-55555-5-5-55555(2x)-22-22222-2-2-2222222--------------------||
A|-33-33333-3-3-33333-----22-22222-2-2-2222222(2x)----------------||
E|------------------------00-00000-0-0-0000000--------------------||
      *****     *****        *****    (*******)shred it

Verse part 2 continued(Guitar 2)
E|----------------------------------------------------------------||
B|----------------------------------------------------------------||
G|-55-------5-5---------------------------------------------------||
D|-55-------5-5------(2x)-22-22222-2-2-2222222--------------------||
A|-33-------3-3-----------22-22222-2-2-2222222(2x)----------------||
E|------------------------00-00000-0-0-0000000--------------------||
                             *****    (*******)shred it
[ Tab from: http://www.guitartabs.cc/tabs/f/from_autumn_to_ashes/milligram_smile_tab_ver_3.html ]
Pre-chorus(Guitar 1)
E|--------------------------------||
B|--------------------------------||
G|-5------------------------------||
D|-5(15x)-2-----------------------||
A|-3------2(15x)------------------||
E|--------0-----------------------||

Pre-chorus(Guitar 2) (2x)
E|------------------------------------------------||
B|------------------------------------------------||
G|-5-5-5-7-7-7-9-9-9-11-11-11--11/12--------------||
D|-x-x-x-x-x-x-x-x-x--x--x--x---x--x--------------||
A|-3-3-3-5-5-5-7-7-7--9--9--9---9-10--------------||
E|------------------------------------------------||

Pre-chorus continued(Guitar 1) (2x)
E|--------------------------------||
B|--------------------------------||
G|--------------------------------||
D|-2222222-2-2-2-2-2222-----------||
A|-2222222-2-2-2-2-2222-----------||
E|-0000000-0-0-0-0-0000-----------||
   ******* * * * * ****

Pre-chorus continued(Guitar 2) (4x) play very fast
E|------------------------------------------------||
B|-15p13p12-17p13p12-12-13-15-13-12-13------------||
G|------------------------------------------------||
D|------------------------------------------------||
A|------------------------------------------------||
E|------------------------------------------------||

Repeat Pre-chorus

(Guitar 1)play this after second Pre-chorus
E|----------------||
B|----------------||
G|----------------||
D|-2---2---5~-----||
A|-2---2---5~-----||
E|-0---0---3~-----||

Guitar 2 plays last part of Pre-chorus 

Chorus(Guitar 1) (2x)
E|----------------------------------------------------------------||
B|----------------------------------------------------------------||
G|-----------------------------7-7-77-7-7----5-5-55-5-5-----------||
D|-2-2-22-2-2----5-5-55-5-5----5-5-55-5-5----5-5-55-5-5-----------||
A|-2-2-22-2-2----5-5-55-5-5----5-5-55-5-5----3-3-33-3-3-----------||
E|-0-0-00-0-0-00-3-3-33-3-3-00------------00----------------------||
       *      **     *      **     *      **     *

Chorus(Guitar 2) (2x)
E|----------------------------------------------------------------||
B|----------------------------------------------------------------||
G|-----------------------------7-7-77-7-7--------0-----0----------||
D|-2-2-22-2-2----5-5-55-5-5----5-5-55-5-5------2-----2---2--------||
A|-2-2-22-2-2----5-5-55-5-5----5-5-55-5-5----3-----3-------3------||
E|-0-0-00-0-0-00-3-3-33-3-3-00------------00----------------------||
       *      **     *      **     *      **     

Both Guitars play this after this chorus
E|----------------||
B|----------------||
G|----------------||
D|-2~------22~----||
A|-2~------22~----||
E|-0~------00~----||

Both Guitars play Verse part 1
                                                                            
Bridge(Guitar 1) (3x)                           
E|-3-3---3-3-----3-3---3-3-----2-2---3-3-3p2---|-------3----------||
B|-3-3---3---3---3-3---3---3---3-3---3-------3-|---------3--------||
G|-0-0---0-----0-0-0---0-----0-2-2---2---------|-----0-----0------||
D|-2-2---2-------0-0---0-----------------------|---2---------2----||
A|-2-2---2-------2-2---2-----------------------|-3-------------3--||
E|-----0---------3-3-3-3-----------0-----------|------------------||
       *             *             *

Bridge(Guitar 2)
E|----------------------------------------------------------------||
B|----------------------------------------------------------------||
G|---------------------------------------------------0-----0------||
D|-------------------------------------------------2-----2---2----||
A|-----------------------------------------------3-----3-------3--||
E|----------------------------------------------------------------||

                                         Play with distortion the                          
Bridge(Guitar 2) (2x)                    second time
E|-------3-------------3-------2-----3--|-------------------------||
B|-------3-------------3---------3---3--|-------------------------||
G|-------0-------------0-------------2--|-----0-----0-------------||
D|---2----------------------------------|---2-----2---2-----------||
A|-2---------------2--------------------|-3-----3-------3---------||
E|---------------3----------------------|-------------------------||

Repeat Chorus

Outro(Both Guitars)
E|----------------||
B|----------------||
G|----------------||
D|----2~----------||
A|----2~----------||
E|-00-0~----------||
Comments