From Autumn To Ashes - Kansas City 90210 Chords & Tabs

 

Kansas City 90210 Chords & Tabs

From Autumn To Ashes Chords & Tabs

Version: 1 Type: Tab 0 ratings
1 star 2 stars 3 stars 4 stars 5 stars
comments

Kansas City 90210 Tab

----------------------------------------------------------------------------
From Autumn To Ashes- Kansas City 90210-
----------------------------------------------------------------------------
Tabbed By: PunkRockFreak
Tuning: Standard

Alright, This is a great song by a great band. Not so sure of the begining, but you get 
idea.

Intro:
E|--------7-3-5--12-8-7-|
B|------5---------------|
G|----5-----------------|  4x
D|--5-------------------|
A|----------------------|
E|----------------------|

Then.....

Intro (Part 2)
E|--------------------------------------------------|
B|--------------------------------------------------|
G|--9-99999-10-9-7-77777-12-10-9-99999-5-7-10-9-4-5-|  2x
D|--x-xxxxx-x--x-x-xxxxx-x--x--x-xxxxx-x-x-x--x-x-x-|
A|--7-77777-8--7-5-55555-10-8--7-77777-3-5-8--7-2-3-|
E|--------------------------------------------------|

[ Tab from: http://www.guitartabs.cc/tabs/f/from_autumn_to_ashes/kansas_city_90210_tab.html ]
Verse/Chorus:
   Always a spectacle / It's a public show ..........
E|---------------------------------------------------|
B|---------------------------------------------------|
G|---------------------------------------------------|
D|-7-------------------3-----------------------------|
A|-7-------------------3-----------------------------|
E|-5-------------------1-----------------------------|

   Unimpressed so its time that i let you go.........
E|---------------------------------------------------|
B|---------------------------------------------------|
G|-5-------------------------------------------------|
D|-5-------------------5-----------------------------|
A|-3-------------------5-----------------------------|
E|---------------------3-----------------------------|


Bridge:

E|----------------------------------------------------|
B|----------------------------------------------------|
G|----------------------------------------------------|
D|-7-7-7-7-7-7--6-6-6-6-6-6--5-5-5-5-5-5--3-3-3-2-2-2-| 4x
A|-7-7-7-7-7-7--6-6-6-6-6-6--5-5-5-5-5-5--3-3-3-2-2-2-|
E|-5-5-5-5-5-5--4-4-4-4-4-4--3-3-3-3-3-3--1-1-1-0-0-0-|


Intro (Pt 1)
Intro (Pt 2)
Verse
Chorus
Verse
Chorus
Intro (Pt 2)
Intro (Pt 1)
Bridge
Intro (Pt 2)
Intro (Pt 1)


Thats all you need. Its the same chord pattern throughout the whole song. Any Comments, 
me at ABelter10@hotmail.com
Comments