From Autumn To Ashes - Chloroform Perfume Chords & Tabs

 

Chloroform Perfume Chords & Tabs

From Autumn To Ashes Chords & Tabs

Version: 3 Type: Tab 0 ratings
1 star 2 stars 3 stars 4 stars 5 stars
comments

Chloroform Perfume Tab

Solo

E ----------------------------------------------------------------------|
B --3----1--0--0>1-------3----1--0--0>1--------3----1--0--0>1--------0--|
G ------------------0--------------------0---------------------0--------|
D ----------------------------------------------------------------------|
A ----------------------------------------------------------------------|
E ----------------------------------------------------------------------|
[ Tab from: http://www.guitartabs.cc/tabs/f/from_autumn_to_ashes/chloroform_perfume_tab_ver_3.html ]
E ----------------------------------------------------------|
B 1>0-1>3-1>0---1---0------------1---0-----3--1----1---0----|
G --------------------0-0-0------------0--------------------|
D ----------------------------------------------------------|
A ----------------------------------------------------------|
E ----------------------------------------------------------|


E --3-2-0---0--------------------|
B --------3---1-3----------------|
G ----------------0-2---0--------|
D --------------------2---0-2----|
A ----------------------------2--|
E -------------------------------|
Comments