From Autumn To Ashes - Chloroform Perfume Chords & Tabs

 

Chloroform Perfume Chords & Tabs

From Autumn To Ashes Chords & Tabs

Version: 1 Type: Tab 0 ratings
1 star 2 stars 3 stars 4 stars 5 stars
comments

Chloroform Perfume Tab

This is a cool song, if anyone would like do figure out the solo please do so :)

INTRO/VERSE- Timing is weird but listen to it and you should get it
------------0----------------------------------------------------------
------------0--------------------------0-------------------------------
--------0---0.--0---------------0------0----------------------------0--
-----9-------------9------9>10---------9.-----9--------------0------0.-
--7-------------------7------------7------7------10----7>9-------9-----
-----------------------------------------------------------------------
[ Tab from: http://www.guitartabs.cc/tabs/f/from_autumn_to_ashes/chloroform_perfume_tab.html ]
------------------------------------------
------------------------------------------
------------------------------------------
--------------------0--------------0------
------9-------9>10---------0---------9----
--7------10.----------10-7--10-7----------

Pre-Chorus ("You said so much...")
E ----0-----0
B ----1-----0
G ----0-----0
D ----2-----2
A ----3-----2
E ----x-----0

Chorus ("It's past 3 AM...")
E ----7-----x-----x
B ----8-----x-----x
G ----9-----7-----5
D ----9-----7-----5
E ----7-----5-----3
A ----x-----x-----x

After Solo Thing Chords ("She keeps on asking...") (not too sure bout this)
E ----0-----2-----3-----x
B ----2-----x-----0-----0
G ----2-----0-----0-----2
D ----0-----2-----0-----0
A ----3-----3-----3-----3
E ----0-----x-----x-----0

Basic Last Part with Distortion ("She laced her perfume...")
E ----x-----x-----x
B ----x-----x-----x
G ----x-----7-----5
D ----2-----7-----5
A ----2-----5-----3
E ----0-----x-----x
Comments