From Autumn To Ashes - Cherry Kiss Chords & Tabs

 

Cherry Kiss Chords & Tabs

From Autumn To Ashes Chords & Tabs

Version: 3 Type: Tab 0 ratings
1 star 2 stars 3 stars 4 stars 5 stars
comments

Cherry Kiss Tab

i just took the other guys, fixed it up and put in a little more cuz
it's late and I'm bored, oh and umm first tab Ive done and put on
the internet so... comment!

Cherry Kiss
FATA

guitar 1
e-----------------------------------------------------------------|
B-----------------------------------------------------------------|
G-----------------------------------------------------------------|
D-5-4-2-5-4-2-5-4-2-5-4-2-5-4-2---4-2-0-4-2-0-4-2-0-4-2-0-4-2-0---|
A-----------------------------------------------------------------|
E-----------------------------------------------------------------|

e-----------------------------------------------------------------|
B-----------------------------------------------------------------|
G-----------------------------------------------------------------|
D-2-0---2-0---2-0---2-0---2-0-------------------------------------|
A-----3-----3-----3-----3-----3-----------------------------------|
E-----------------------------------------------------------------|

guitar 2
e-----------------------------------------------------------------|
B-----------------------------------------------------------------|
G-----------------------------------------------------------------|
D-5-----------------------------5-4-------------------------------|
A-----------------------------------------------------------------|
E-3-----------------------------3-2-------------------------------|

e-----------------------------------------------------------------|
B-----------------------------------------------------------------|
G-----------------------------------------------------------------|
D-----------------------------------------------------------------|
A-3---------------------------------------------------------------|
E-----------------------------------------------------------------|


guitar 1
e-----------------------------------------------------------------|
B-----------------------------------------------------------------|
G-----------------------------------------------------------------|
D-----------------------------------------------------------------|
A-222--222--222--222--2222----------------------------------------|
E-000--000--000--000--0000----------------------------------------|


e-----------------------------------------------------------------|
B-----------------------------------------------------------------|
G-----------------------------------------------------------------|
D-5-4-2-5-4-2-5-4-2-5-4-2-5-4-2---4-2-0-4-2-0-4-2-0-4-2-0-4-2-0---|
A-----------------------------------------------------------------|
E-----------------------------------------------------------------|

e-----------------------------------------------------------------|
B-----------------------------------------------------------------|
G-----------------------------------------------------------------|
D-2-0---2-0---2-0---2-0---2-0-------------------------------------|
A-----3-----3-----3-----3-----3-----------------------------------|
E-----------------------------------------------------------------|

guitar 2
e------------------------------------------------------------------|
B------------------------------------------------------------------|
G------------------------------------------------------------------|
D-5--------------------------------4h5------5-------7---------4----|
A------------------------------------------------------------------|
E------------------------------------------------------------------|

e-----------------------------------------------------------------|
B-----------------------------------------------------------------|
G-----------------------------------------------------------------|
D-5h7---7---------5-----------------------------------------------|
A-----------------------------------------------------------------|
E-----------------------------------------------------------------|


guitar 1
e-----------------------------------------------------------------|
B-----------------------------------------------------------------|
G-----------------------------------------------------------------|
D-----------------------------------------------------------------|
A-222--222--222--222--2222----------------------------------------|
E-000--000--000--000--0000----------------------------------------|


e-----------------------------------------------------------------|
B-----------------------------------------------------------------|
G-----------------------------------------------------------------|
D-2222222-4444444-5555555-5-4-2--0000000-2222222-4444444-4-2-0----|
A-----------------------------------------------------------------|
E-----------------------------------------------------------------|

e-----------------------------------------------------------------|
B-----------------------------------------------------------------|
G-----------------------------------------------------------------|
D---------0000000-2222222--2-0------------------------------------|
A-3333333----------------------3----------------------------------|
E-----------------------------------------------------------------|

guitar 2
e-----------------------------------------------------------------|
B-----------------------------------------------------------------|
G-----------------------------------------------------------------|
D-------------------------5-4-2-0------------------------4-2-0----|
A--------------------------------------------------------------3--|
E-----------------------------------------------------------------|

e-----------------------------------------------------------------|
B-----------------------------------------------------------------|
G-----------------------------------------------------------------|
D--------------------------2-0------------------------------------|
A------------------------------3----------------------------------|
E-----------------------------------------------------------------|

guitar 1
e-----------------------------------------------------------------|
B-----------------------------------------------------------------|
G-----------------------------------------------------------------|
D-----------------------------------------------------------------|
A-2--222-2--2--2--2--2-2-222-2--2--2--2--2------------------------|
E-0--000-0--0--0--0--0-0-000-0--0--0--0--0------------------------|

[ Tab from: http://www.guitartabs.cc/tabs/f/from_autumn_to_ashes/cherry_kiss_tab_ver_3.html ]
e-----------------------------------------------------------------|
B-----------------------------------------------------------------|
G-----------------------------------------------------------------|
D-2222222-4444444-5555555-5-4-2--0000000-2222222-4444444-4-2-0----|
A-----------------------------------------------------------------|
E-----------------------------------------------------------------|
  ******* ******* ******* * * *  ******* ******* ******* * * *
e-----------------------------------------------------------------|
B-----------------------------------------------------------------|
G-----------------------------------------------------------------|
D---------0000000-2222222--2-0------------------------------------|
A-3333333----------------------3----------------------------------|
E-----------------------------------------------------------------|
  ******* ******* *******  * * *

guitar 2
e------------------------------------------------------------------|
B------------------------------------------------------------------|
G------------------------------------------------------------------|
D-(2)----------------------5-4-2-(0)---------------------4-2-0-----|(3)
A------------------------------------------------------------------|
E------------------------------------------------------------------|

e-----------------------------------------------------------------|
B-----------------------------------------------------------------|
G-----------------------------------------------------------------|
D--------------------------2-0------------------------------------|
A------------------------------3----------------------------------|
E-----------------------------------------------------------------|

guitar 1
e-----------------------------------------------------------------|
B-----------------------------------------------------------------|
G-----------------------------------------------------------------|
D-----------------------------------------------------------------|
A-2--222-2--2--2--2--2-2-222-2--2--2--2--2------------------------|
E-0--000-0--0--0--0--0-0-000-0--0--0--0--0------------------------|

e-----------------------------------------------------------------|
B-----------------------------------------------------------------|
G-----------------------------------------------------------------|
D-2222222-4444444-5555555-5-4-2--0000000-2222222-4444444-4-2-0----|
A-----------------------------------------------------------------|
E-----------------------------------------------------------------|
  ******* ******* ******* * * *  ******* ******* ******* * * *
e-----------------------------------------------------------------|
B-----------------------------------------------------------------|
G-----------------------------------------------------------------|
D---------0000000-2222222--2-0------------------------------------|
A-3333333----------------------3----------------------------------|
E-----------------------------------------------------------------|
  ******* ******* *******  * * *

guitar 2
e------------------------------------------------------------------|
B------------------------------------------------------------------|
G------------------------------------------------------------------|
D-(2)----------------------5-4-2-(0)---------------------4-2-0-----|(3)
A------------------------------------------------------------------|
E------------------------------------------------------------------|

e-----------------------------------------------------------------|
B-----------------------------------------------------------------|
G-----------------------------------------------------------------|
D--------------------------2-0------------------------------------|
A------------------------------3----------------------------------|
E-----------------------------------------------------------------|

guitar 1
e-----------------------------------------------------------|
B-----------------------------------------------------------|
G-----------------------------------------------------------|
D-----------------------------------------------------------|
A-2--222-2--2--2--2--2-2-222-2--2--2--2--2----2---2---2---2-|
E-0--000-0--0--0--0--0-0-000-0--0--0--0--0----0---0---0---0-|

e--------------------------------------------------------------------|
B--------------------------------------------------------------------|
G--------------------------------------------------------------------|
D---9-9/10-10-10\9-------------------9-9/10-10-10\9------------------|
A-------------------222-222-222-222------------------222-222-222-222-|
E---7-7/8--8---8\7--000-000-000-000--7-7/8--8---8\7--000-000-000-000-|

e---------------------------------------------------------------------|
B---------------------------------------------------------------------|
G---------------------------------------------------------------------|
D---9-9/10-10-10\16-------------------9-9/10-10-10\9------------------|
A--------------------222-222-222-222------------------222-222-222-222-|
E---7-7/8--8---8\14--000-000-000-000--7-7/8--8---8\7--000-000-000-000-|

e-------------------|
B-------------------|
G-------------------|
D---9-9/10-10-10\16-|
A-------------------|
E---7-7/8--8---8\14-|


e------------------------------------------|
B------------------------------------------|
G------------------------------------------|
D-2-9/10\9-22-9/10\9-22-9/10\9-2-10\9/10-9-|
A-2-9/10\9-22-9/10\9-22-9/10\9-2-10\9/10-9-|
E-0-7/ 8\7-00-7/ 8\7-00-7/ 8\7-0- 8\7/ 8-7-|

e------------------------------------------|
B------------------------------------------|
G------------------------------------------|
D-2-9/10\9-22-9/10\9-22-9/10\9-2-10\9/10-9-| X5
A-2-9/10\9-22-9/10\9-22-9/10\9-2-10\9/10-9-|
E-0-7/ 8\7-00-7/ 8\7-00-7/ 8\7-0- 8\7/ 8-7-|

guitar 2 - play same time as last five of guitar 1
e------------------------------------------      ---|
B------------------------------------------      ---|
G------------------------------------------ then ---|
D-2-9/10\9-22-9/10\9-22-9/10\9-2-10\9/10-9- X5   -2-|
A-2-9/10\9-22-9/10\9-22-9/10\9-2-10\9/10-9-      -2-|
E-0-7/ 8\7-00-7/ 8\7-00-7/ 8\7-0- 8\7/ 8-7-      -0-|

guitar 1
then it does something with one these chords maybe, maybe all of them, maybe more, 
more, I don't know. the first one sounds the best, so...

e-7---7---9-|
B-8---7---9-|
G-9---7---9-|
D-9---9--11-|
A-7---9--11-|
E-----7---9-|

you figure out the rest. I'm tired.
Comments