From Autumn To Ashes - Cherry Kiss Chords & Tabs

 

Cherry Kiss Chords & Tabs

From Autumn To Ashes Chords & Tabs

Version: 1 Type: Tab 0 ratings
1 star 2 stars 3 stars 4 stars 5 stars
comments

Cherry Kiss Tab

   
hey this is part of cherry kiss, ive only been playing guitar for
like a year and a half but here is what i figured out


drop d
---------------------------------------------
---------------------------------------------
---------------------------------------------
---------------------------------------------
---10-9-7--10-9-7--10-9-7--10-9-7--10-9-7----
---------------------------------------------

---------------------------------------------
---------------------------------------------
---------------------------------------------
---------------------------------------------
---9-7-5--9-7-5--9-7-5--9-7-5--9-7-5---------
---------------------------------------------

----------------------------------------------------------
----------------------------------------------------------
----------------------------------------------------------
-----------------------------------------2--2--2--2-2-----
----7-5-3--7-5-3--7-5-3--7-5-3--7-5-3----2--2--2--2-2-----
-----------------------------------------2--2--2--2-2-----

[ Tab from: http://www.guitartabs.cc/tabs/f/from_autumn_to_ashes/cherry_kiss_tab.html ]
------------------------------------------
------------------------------------------
------------------------------------------
------------------------------------------
----7*-9*-10*--10-9-7----5*-7*-9*--9-7-5-- 
------------------------------------------   


--------------------------
--------------------------
--------------------------  * ='s do as many as needed
---------------------2*---
----3*-5*-7*--7-5-3--2*---
---------------------2*---

------------------------------------------------------------
------------------------------------------------------------
------------------------------------------------------------
--222-222-222-222--0h2h3p2--222-222-222-222--0h2h3p3--------
--222-222-222-222-----------222-222-222-222-----------------
--222-222-222-222-----------222-222-222-222-----------------

----------------------------------------------------------------------
----------------------------------------------------------------------
----------------------2---------------------------------------------2-
222-222-222-222-0h2h3--222-222-222-222-0h2h3p2-222-222-222-222-0h2h3--
222-222-222-222--------222-222-222-222---------222-222-222-222--------
222-222-222-222--------222-222-222-222---------222-222-222-222--------


----------------
----------------
----------------
---0h2h3p2------ play a bunch of times, i cant tell what he switches 
---------------- to every fourth time so i just play this alot and..
----------------

..then i cant figure out the rest, if someone can please email it
to me at allenmanbear@aol.com
Comments