From Autumn To Ashes - All I Taste Today Is Whats Her Name Chords & Tabs

 

All I Taste Today Is Whats Her Name Chords & Tabs

From Autumn To Ashes Chords & Tabs

Version: 1 Type: Bass Tab

All I Taste Today Is Whats Her Name Bass Tab

   
  song: All I Taste Today is whats her Name
  band: from autumn to ashes
  tuning: F,C,G,C


   intro
   ------------|
   ------------|
   ---0--5~----|
   -4----------|
                     |                                  |
    verse  00:03     |       x4                         |
   -----------------------------------------------------|
   ---------------------------------------67000067------|
   --------------------------5---75--7755---------------|
   --4444444---------4444444---4------------------------|


    cont.  00:28
   -----------------------------------------------------|
   -----------------------------------------------------| x4
   -----------------------------------------------------|
   -44444---44444--44444--44-44-------------------------|


    bass solo 00:42
   -----------------------------------------------------|
   ---------------------------------------2-------------| x2
   --0-0----------2-0-------0--0-------0-2-3-3-2-3------|
   -4-4-4-2-4-0-4-----6-4~---4---4-2-4------------------|

[ Tab from: http://www.guitartabs.cc/tabs/f/from_autumn_to_ashes/all_i_taste_today_is_whats_her_name_btab.html ]
    chorus 00:56                                        3rd and 4th time
   -----------------------------------------------------|  start struming
   -----------------------------------------------------| x4
   -0--------0---------5-4-0~---5-4-0~------------------|
   ---4--2~-----4--2~-----------------------------------|


     inturlude  1:48
   -----------------------------------------------------|
   -----------------------------------------------------|
   -----------------------------------------------------|
   ----444444444444444444444444444----------------------|
          gradually get louder


     verse 1:53

    chorus 2:18 play slower
    bridge2:45
   -----------------------------------------------------|
   -----------------------------------------------------|
   --0------5-4-0~--0------5-4-0~-----------------------|
   ----4-2~-----------4-2~------------------------------|


   break

   -----------------------------------------------------|
   -----------------------------------------------------| x8
   -----------------------------------------------------|
   --44444---44444---44444--44-44-----------------------|

   the end