Frogs - Starboy Replace Chords & Tabs

 

Starboy Replace Chords & Tabs

Frogs Chords & Tabs

Version: 1 Type: Tab 0 ratings
1 star 2 stars 3 stars 4 stars 5 stars
comments

Starboy Replace Tab

   

        STARBOY - from "Starjob"

        Written & Recorded by THE FROGS - tab by Jesse Alora & Josh Fleck
        Queen Boys: A Tribute To The Frogs  -  http://www.queenboys.com



        CHORDS:

            F   C  Am  B/G  D  Asus2 F#
        e---1---0---0---3---2---0----2---
        B---1---1---1---3---3---0----2---
        G---2---0---2---0---2---2----3---
        D---3---2---2---0---0---2----4---
        A---3---3---0---2-------0----4---
        E--------------------------------


        INTRO:

            F               C
        e-------------------------10-10--8---
        B------------------------------------
        G-----5---------5---------5----------  REPEAT
        D------------------------------------
        A--3-----3--3-------3--3-----3--3----
        E------------------------------------


        VERSE:

        F                            C
        Executive with his pants down
        F                    C
        Sitting behind a desk
                                    Am            B/G
        How bad do you want to be a star, boy?
        C
        Be a starboy
[ Tab from: http://www.guitartabs.cc/tabs/f/frogs/starboy_replace_tab.html ]
        That mansion on the hill could be yours
        Fancy cash and girls
        How bad do you want to be a star, boy?
        Be a starboy


        BRIDGE:

        D                 Asus2
        Finish me off, undo yourself
        F#
        Put this heroin in your arm
                        C
        You're on your way


	SOLO:


           C          F         C     F         C      F           C                   F        C

        e--8--8-------5-----8---------5-----10--12-------------------------------------------------
        B--------6-5------------8-------------------------5--5--0-------------------3--5----0------
        G----------------------------------------------------------5----------------------------5--
        D----------------------------------------------------------------2--3--2-------------------
        A------------------------------------------------------------------------------------------
        E------------------------------------------------------------------------------------------


        VERSE:

        I think we can do business, boy
        it's a crazy business but it's worth it
        how bad do you want to be a star, boy?
        be a starboy


Comments