Fricks - All Alone Chords & Tabs

 

All Alone Chords & Tabs

Fricks Chords & Tabs

Version: 1 Type: Bass Tab 0 ratings
1 star 2 stars 3 stars 4 stars 5 stars
comments

All Alone Bass Tab

   
artist: the fricks
song: all alone
tabbed by: felix                  

standard tuning              *S = slide*

            intro: 

                  G|-------------------
                  D|-------------------
                  A|-2---5---2---5-----
                  E|---3---5---3---5---
       (play along with beginning picking guitar)


play this for ALL the verses (even the picking part):

    G|-----------------------------------------------
    D|-----------------------------------------------
    A|-2-2-2-3-2-0-------5-5-5-5-3-2-0-0-0-2---0-2---
    E|-------------3-3-3---------------------3-------

chorus:
[ Tab from: http://www.guitartabs.cc/tabs/f/fricks/all_alone_btab.html ]
G|----------------------------------------------------
D|----------------------------------------------------
A|--------------------------3-3-2-2-------------------
E|-7-7-7-7-5-5-5-5-3-3-3-3----------0-0-0-0-0-3-3-3-3-

                   G|------------------
  *continued*      D|------------------
                   A|----------3-2-----
                   E|-5-5-5-5------0---

little cheap solo thing:

G|----------------------------------------------------------
D|----------------------------------------------------------
A|----------------------------------------------------------
E|-5-3-1-1-3-5-5-3-1-1-3-5-5-3-1-1-3-5-5-3-1-1-S3-1-0-0-0-0-


that's the song...it's quit easy if you think about it.  have fun
Comments