Fretblanket - Into The Ocean Chords & Tabs

 

Into The Ocean Chords & Tabs

Fretblanket Chords & Tabs

Version: 1 Type: Bass Tab 0 ratings
1 star 2 stars 3 stars 4 stars 5 stars
comments

Into The Ocean Bass Tab

   
Song: Into The Ocean
Artist: Fretblanket
Conposed by: Dave Allsopp

[ Tab from: http://www.guitartabs.cc/tabs/f/fretblanket/into_the_ocean_btab.html ]
 
Intro
G-----------------
D-----------5-3---
A-----3-6-6-----5-
E-3-3-------------
 
Verse1
G----------
D-55-----5-
A----666---
E----------
 
Verse2
G----------
D----------
A----666---
E-33-----3-
 
Pre-Chorus
G---------------------------------
D---------------------------------
A-0-0-00006666-666--------5555-555
E-----------------6-6-6666--------
 
Chorus
G-------------553-------------553-
D-----553---35---5----------35---5
A---35---533------0040004033------  
E-33------------------------------
 
Middle 8 (1. I could wait...)
G-----------------
D-----------------
A-2--2-202-------0     
E---------0--0-04-
 
Middle 8 (2.  Though I may...)
G------------------
D-0-00-0202-22-242-
A------------------
E------------------
 
(Middle 8 (3.  And no-one's gonna...)
G-----------------46-7-9----------
D---------------------------------
A-77--77--00--00----------0-0-0000
E---------------------------------
 
Break
G---------------------------------
D-----------------1-1-11110000-000
A---------33--33------------------
E-33--33--------------------------
Comments