Frenzal Rhomb - Secret Track Chords & Tabs

 

Secret Track Chords & Tabs

Frenzal Rhomb Chords & Tabs

Version: 2 Type: Bass Tab 0 ratings
1 star 2 stars 3 stars 4 stars 5 stars
comments

Secret Track Bass Tab

'Secret Tack' -- Bass Tab
Performed by Frenzal Rhomb
From the album "Coughing Up A Storm" on ? Records
Music and Lyrics by: Frenzal Rhomb
(c) 199? ? Records
---------------
Tabbed by: Justin Reynolds (illihexill@aol.com)
Ska/Punk/311 Bass Tab Archive -- http://members.aol.com/illihexill/index.html


Riff 1:
====
[ Tab from: http://www.guitartabs.cc/tabs/f/frenzal_rhomb/secret_track_btab_ver_2.html ]
G:---------------0------320------------0-----------
D:--020------------02 -------2-------------02-----
A:---------------------------------------------------
E:---------0-----------------------0----------------

Riff 2:
====

G:----------------------2-2-2-
D:-2-2-2-4-4-5-5-5----------
A:------------------------------
E:------------------------------
Comments