Frenzal Rhomb - Run Chords & Tabs

 

Run Chords & Tabs

Frenzal Rhomb Chords & Tabs

Version: 3 Type: Bass Tab 0 ratings
1 star 2 stars 3 stars 4 stars 5 stars
comments

Run Bass Tab

   
This is a great song to play, the surf lick is an easy but fun little bit to play also. 
I'm at school at the moment so im writing this from memory. If i get home and it's wrong 
i will re-submit

Verse

G|-------------------------------------|
D|-------------------------------------|
A|-----5-5-5-2-2-3-2-0-1-1-1-1-3-3-2-0-|
E|3-3--------------------3-------------|

Chorus (play first bit twice then the second bit once then third bit once)

G|--------------------------------| 
D|--------------------------------|
A|3-3-3-3-5-5-5-5-2-2-2-2-7-7-7-5-|
E|--------------------------------|
[ Tab from: http://www.guitartabs.cc/tabs/f/frenzal_rhomb/run_btab_ver_3.html ]
G|-----------------------------------------| 
D|-----------------------------------------|
A|3-3-3-3-5-5-5-5--0-5-7-7-7-7-0-5-7-7-7-7-|
E|-----------------------------------------|

G|--------------------| 
D|--------------------|
A|0-5-7-7-7-7-8-8-7-5-|
E|--------------------|

Surf Lick (play firt bit twice then second bit once)

G|--------------------------------| 
D|7-------77------7---------------|
A|--7-5-7---7-5-7---7-5-7---------|
E|------------------------7-7-5-3-|

G|-|-|-|7|
D|-|3|7|-|
A|5|-|-|-|
E|-|-|-|-|

Song Order
Guitar plays first without bass then the bass joins in after the first "RUN" is said
Verse x 4
Chorus x 1
Verse x 3 (i think it's 3 but it might be 4)
Chorus x 1
Surf lick x 1
Verse x 4(Im not sure about this either whether its 4 or 3)
Chorus x 1

Thats it, im sorry about the unsureness of how many times to play the verse but just 
listen to it and youll find out
Comments