Frenzal Rhomb - I Miss My Lung Chords & Tabs

 

I Miss My Lung Chords & Tabs

Frenzal Rhomb Chords & Tabs

Version: 2 Type: Bass Tab 0 ratings
1 star 2 stars 3 stars 4 stars 5 stars
comments

I Miss My Lung Bass Tab

Frenzal Rhomb
I Miss My Lung
tabbed by Brent

verse
     |-----------------------------------------------------------|
     |----7---5-------7---5---5--7-------------------------------|
     |--5---5---5-5-5---5---5----------7---5-------7---5---5--7--|
     |-------------------------------5---5---5-5-5---5---5-------|
[ Tab from: http://www.guitartabs.cc/tabs/f/frenzal_rhomb/i_miss_my_lung_btab_ver_2.html ]
     chorus
     |----------------------------------------------------|
     |----------------------------------------------------|
     |-2-2-2-2-2-2-2-2------------------/5-5-5-5-5-5-5-5--|
     |------------------3-3-3-3-3-3-3-3-------------------|

     bridge
     |------------------------------|
     |------------------------------|
     |------------------------------|
     |--3-3-3-3-3-3-3-5-5-5-5-5-5---|

     thats a pretty rough tab, so you need to do some muckin around, especially in
     the verses. the tab is basic- play around and you should be able to get it.
Comments