Frei Wild - Weil Du Mich Nur Verarscht Hast Chords & Tabs

 

Weil Du Mich Nur Verarscht Hast Chords & Tabs

Frei Wild Chords & Tabs

Version: 1 Type: Bass Tab

Weil Du Mich Nur Verarscht Hast Bass Tab

Intro
G|---------------------------------------------------|
D|---------------00-0-4540---------------------------| x2
A|-------020-----------------00-0-454-0--------------|
E|-22-2------2-------------------------------00-0000-|


VERSE 1                                2nd time
G|-------------------------------------|---|
D|----------------02-------------------|---|
A|-00-0002022-222-------------00-0000--|---|
E|-------------------00-00020----------|-4-|

VERSE 2
G|---------------------------------------------------|
D|---------------00-0-4540---------------------------| x2
A|-------020-----------------00-0-454-0--------------|
E|-22-2------2-------------------------------00-0000-|

Refrain
G|-------------------------------------|  
D|----------00000000-------------------|  x2
A|-------------------00000000----------|
E|-22222222-------------------00000000-|
[ Tab from: http://www.guitartabs.cc/tabs/f/frei_wild/weil_du_mich_nur_verarscht_hast_btab.html ]

VERSE 1                                2nd time
G|-------------------------------------|---|
D|----------------02-------------------|---|
A|-00-0002022-222-------------00-0000--|---|
E|-------------------00-00020----------|-4-|

VERSE 2
G|---------------------------------------------------|
D|---------------00-0-4540---------------------------| x2
A|-------020-----------------00-0-454-0--------------|
E|-22-2------2-------------------------------00-0000-|

VERSE 3
G|---------------------------------------------------|
A|--------0~-----------------------------------------| x4
D|--------------0~-----------------------------------|
E|-2~---------------------0~-------------------------|

Refrain
G|-------------------------------------|  
D|----------00000000-------------------|  x4 
A|-------------------00000000----------|
E|-22222222-------------------00000000-|